Song name
# A B C D E F G H I J K L M N O P Q R S T U V W X Y Z

Misc Unsigned Bands - Lacey - Let It Go tab

----------------------------------------------------------------
Let It Go - Lacey
-----------------------------------------------------------------
Tabbed by: Kenny

I absolutely love this band, and this song is amazing and so much fun to play!
This is only one guitar that is in the song but it carries the melody throughout,
i'm pretty sure this is correct.
I have seen them play live loads and i've watched the guitarist play something
like this.  It sounds perfect to me!

Here is the song - http://www.youtube.com/watch?v=pJEwCPRRvok


Tuning: Drop D

Intro - Lead

e|---------------------------------------------------------------------|
B|---------------------------------------------------------------------|
G|-x999-x777-x11-x11--x999-x777-x11-x11---x99999999-x77777777----------|     X2
D|-x000-x000--x0--x0--x000-x000--x0--x0---x00000000-x00000000----------|
A|---------------------------------------------------------------------|
D|---------------------------------------------------------------------|

Verse - Lead

e|--------------------------------------------------------------------|
B|--------------------------------------------------------------------|
G|-999-777-11-11--999-777-11-11---99999999-77777777-------------------|     X2
D|-000-000--0--0--000-000--0--0---00000000-00000000-------------------|
A|--------------------------------------------------------------------|
D|--------------------------------------------------------------------|

Pre Chorus - Lead

e|---------------------------------------------------------------|
B|---------------------------------------------------------------|
G|---12-------11-----12 -----11 ----9-------11-----9--7----------|
D|---0--x16-----0--x3---0-x3---0-x2--0-x3----0-x3--0--0----------|      X2
A|---------------------------------------------------------------|
D|---------------------------------------------------------------|


Chorus - Lead

e|-----14-------12---------12------------------------------------|
B|-------15-------15--15-----15--15------------------------------|
G|---------14-------14---------14--------------------------------|  X2
D|---------------------------------------------------------------|
A|---------------------------------------------------------------|
E|---------------------------------------------------------------|

Post Chorus - Lead

e|-------------------------------------------------------------------|
B|-------------------------------------------------------------------|
G|-x999-x777-x11-x11--x999-x777-x11-x11---x99999999-x77777777--------|     X2
D|-x000-x000--x0--x0--x000-x000--x0--x0---x00000000-x00000000--------|
A|-------------------------------------------------------------------|
D|-------------------------------------------------------------------|

2nd Verse - Lead

e|-----------------------------------------------------------------|
B|-----------------------------------------------------------------|
G|--9--7---11--9--7---9--7--11--9--77777777------------------------|
D|--0--0---0---0--0---0--0--0---0--00000000------------------------|
A|-----------------------------------------------------------------|
D|-----------------------------------------------------------------|

Pre Chorus - Lead

e|--------------------------------------------------------------------|
B|--------------------------------------------------------------------|
G|---12--------11-----12-----11-----9-----11-----9--7-----------------|
D|---0-x16-----0-x3---0-x3---0-x2--0-x3--0-x3---0--0------------------|      X2
A|--------------------------------------------------------------------|
D|--------------------------------------------------------------------|

Chorus - Lead

e|-----14----14----14--14----14---14---12-------12-------------------|
B|-------15----15----15--15----15---15---15--15---15--15-------------|
G|---------14----14--------14---14 --------14-------14---------------|  X4
D|-------------------------------------------------------------------|
A|-------------------------------------------------------------------|
D|-------------------------------------------------------------------|

Breakdown - Lead

e|-----------------------------------------------------------------|
B|-----------------------------------------------------------------|
G|--11------9-------7------11-----9-------7-------7-------9--------|
D|--0-x3---0-x3----0-x2---0-x3---0-x3---0-x2---0-x8---0-x8---------|
A|-----------------------------------------------------------------|
D|-----------------------------------------------------------------|

Bridge - Lead (listen for rhythm)

e|---------------------------------------------------------------|
B|---------------------------------------------------------------|
G|----x9---------------------------------------------------------|
D|----x0---------------------------------------------------------|   X2
A|---------------------------------------------------------------|
D|---------------------------------------------------------------|

Bridge - Lead Continued

e|-------------------------------------------------------------------|
B|-------------------------------------------------------------------|
G|-x999-x777-x11-x11--x999-x777-x11-x11---x99999999-x77777777--------|     X1
D|-x000-x000--x0--x0--x000-x000--x0--x0---x00000000-x00000000--------|
A|-------------------------------------------------------------------|
D|-------------------------------------------------------------------|

e|-------------------------------------------------------------------------------------|
B|-------------------------------------------------------------------------------------|
G|-x999-x777-x11-x11--x999-x777-x11-x11----14----11---14-----14----11----14-11-77------|
D|-x000-x000--x0--x0--x000-x000--x0--x0----0-x3--0-x3--0-x2--0-x3--0-x3--0--0--00------|
A|-------------------------------------------------------------------------------------|
D|-------------------------------------------------------------------------------------|

Chorus - Lead -


e|-12----12--12---12----12----12---14---14---14---14---14---14---12---12---12-------|
B|--15----15--15---15----15----15---15---15---15---15---15---15---15---15---15------|
G|---14----14-------14----14---------14---14--------14---14--------14---14----------|
D|----------------------------------------------------------------------------------|
A|----------------------------------------------------------------------------------|
D|----------------------------------------------------------------------------------|

e|-----12----12----12-----|
B|-------15----15----15---|
G|---------14----14-------|
D|------------------------|
A|------------------------|
D|------------------------|

Chorus - Lead

e|-----14----14----14--14----14---14---12-------12-------------------|
B|-------15----15----15--15----15---15---15--15---15--15-------------|
G|---------14----14--------14---14 --------14-------14---------------|  X2
D|-------------------------------------------------------------------|
A|-------------------------------------------------------------------|
D|-------------------------------------------------------------------|

Last Chorus

e|--17----17----17---17----17----17----14---14---14---12----12---12------------|
B|----15----15----15---15----15----15----15---15---15---15----15---15----------|
G|------14----14---------14----14----------14---14---------14---14-------------|  X2
D|-----------------------------------------------------------------------------|
A|-----------------------------------------------------------------------------|
D|-----------------------------------------------------------------------------|

Outro

e|--14-------17--------------|
B|----15--15---15--15--------|
G|------14-------14--14------|  X2
D|---------------------------|
A|---------------------------|
D|---------------------------|


| /  slide up
| \  slide down
| h  hammer-on
| p  pull-off
| ~  vibrato
| +  harmonic
| x  Mute note
Tap to rate this tab
# A B C D E F G H I J K L M N O P Q R S T U V W X Y Z