Song name
# A B C D E F G H I J K L M N O P Q R S T U V W X Y Z

Misc Unsigned Bands - Cal Stewart - False Poison tab

Music Played and Composed by Cal Stewart
Website - www.youtube.com/user/officialstewartmusic


Intro:

e ---------0-----       e ---------0---|
b -------0---0---       b -------0---0-|
g -----0-------0- x3    g -----0-------|
D ---------------       D -------------|
A ---------------       A -------------|
E ---0-----------       E ---0---------|


Body:
                                                   Stop (2)
e  --7-7-----7-7-7-------7-8-7-5-5-5-------5-5-3/2-0-----0-----0-----------|
b .------0---------0-----------------0---------------0-------0---0-------0-|
g  --------0---------0-----------------0---------------0---0-------0---0---|
D .------------------------------------------------------------------------|
A  ------------------------------------------------------------------------|
E  ----0---------0-----0-0-----0---0-----0-0---0---0-----0-----------0-----|

e ---0---|
b -----0-| .
g -------|
D -------| .
A -------|
E -------|
Tap to rate this tab
 
# A B C D E F G H I J K L M N O P Q R S T U V W X Y Z