Song name
# A B C D E F G H I J K L M N O P Q R S T U V W X Y Z

Misc Unsigned Bands - Three Aces - Remuk chords

Highlighted       Show chord diagrams
Performed by : Three Ace's
Lyrics by : Daniel Shah , Siti Nurhanis , Zawir Haziq
Tabbed by : Daniel Shah

Intro :(pluck) 

e|---------1----------3----------------------0------------0------------------|
B|------------1---------3--------0------0------0---0---------1------1--------|
G|-------------------------4--------------0------0-----2----------h----------|
D|-----3----------5-----------5------2----------------2---------2--------3---|
A|----3----------5------------------2----------------------------------3-----|
E|---------------------------------------------------------------------------|

e|---1----------3-----------------------------------0------0-----------------|
B|-----1-----------3------0------0--------1/3-3----------1---1-------1-------|
G|-------------------4--------------0--0------4-----4----2------2------------|
D|-----------5---------5-------2-------2------5-------------------2----------|
A|---------5-----------------2---------3------5------------------------------|
E|---------------------------------------------------------------------------|

Verse 1
(pluck)
F G
Pabilaku teringat wajah mu 
Em Am
Ku terbayang kenangan pahit lalu
F
Kau telah pergi
G
Meninggalkanku
Em C G Am
Tapi ku kan terus mengejar mu 

(strum)
F G
Sakit hati ini hanya Tuhan yang tahu
E C G Am
Tapi ku kan tetap mencintai mu
F G 
Cinta suci ini telah ku beri
                    Em
Pengorbanan ku terbukti

Chorus
F G Am
Maafkan aku kerna silapku
F G Am
Apakah dosa ku ?
F G E Am
Bukakan pintu hati mu
F G Am G
Untuk menerima ku
F G
Tolong dengar rintihan hati ku ini
E C G Am
Yang selalu menjerit nama mu
F G
Oh kasih .. kembali ~

Verse 2
(pump mute)
F G
Dan bila kau meninggalkan aku 
Em Am
Untuk dia yang dulu
F G
Tidak cukup pengorbanan ku uu~
Em Am
Sampai ku sanggup berjalan jauh
(strum)
F G
Hampir tergadai nyawa aku ini
E C G Am
Tiap detik ku slalu menyayangi
F G
Dengan rela aku melepaskanmu
Em Am
Demi kebaikanmu kekasih

Chorus
F G Am
Maafkan aku kerna silapku
F G Am
Apakah salah ku ?
F G Em Am
Bukakan pintu hati mu
F G Am G
Untuk menerima ku
F G
Tolong dengar rintihan hati ku ini
Em C G Am
Yang selalu menjerit nama mu
F G
Oh kasih .. biarlah ku undurkan diri ~

SOLO
F G Am F G E C G Am

(pluck)
F G Am
Maafkan aku kerna silapku
F G Am
Apakah dosa ku ?
(strum)
F G E Am
Bukakan pintu hati mu
F G Am A
Untuk menerima ku oohh ~
F G Am G
Lenyapkanlah dirimu 
F G Am Gm
Cukuplah sudah ku sakit hati
F G E Am E7 F
Tiba masanya untuk ku melupakanmu
G Am G
Kau membuat REMUK seluruh hatiku

F G
Tolong dengar rintihan hati ku ini
E C G Am
Yang menangis memanggil nama mu
F G
Sayangku uuu ~ .. 
F G Am G F
Sayangku uuu .. biarlah ku undurkan diri ~

Outro
e|-------1--------------3-------------------0------------0------------|
B|----------1------1------3-------------0------0---0----1-------1-----|
G|-------------2------------4---0---------0------0----2------2--------|
D|-----3----------3---5-------5------2---------------2-----2----------|
A|----3--------------5-------------2----------------------------------|
X|--------------------------------------------------------------------|
Tap to rate this tab
 
# A B C D E F G H I J K L M N O P Q R S T U V W X Y Z