Song name
# A B C D E F G H I J K L M N O P Q R S T U V W X Y Z

Misc Unsigned Bands - Keaton Stromberg - Thought Of Her tab

Keaton Stromberg- Thought of Her

Pretty simple. Listening to the song would really help :)

Capo 2

h= hammer-on
p= pull-off

Intro:
                                       Girl...
---------------5---7--9---7--5-------------5------|
--------------------------------7-----------------|
--------------------------------------------------|
--------------------------------------------------|
---------7h9--------------------------------------|
----7h9-------------------------------------------|

                     G
I would write you a lullaby...
                        C
To sing you to sleep at night

                                       Girl...
---------------5---7h9-9--7--5-------------5------|
---------------2-----------------7----------------|
--------------------------------------------------|
--------------------------------------------------|
---------7h9--------------------------------------|
----7h9-------------------------------------------|

                              G
I would buy you the brightest star...
                                    C
If it would make you fall asleep at night

*He then switches between G, C, and Em throughout the rest of the song with this little 
part in there*

------------------|
------------------|
------------------|
------------------|
---------7h9p7----|
----7h9-----------|

*Last note G*
Tap to rate this tab
 
# A B C D E F G H I J K L M N O P Q R S T U V W X Y Z