Song name
# A B C D E F G H I J K L M N O P Q R S T U V W X Y Z

Misc Unsigned Bands - Mission Six- Shine tab

Mission Six- Shine (Collective Soul)cover

e|------------------------------------------|Intro
B|------------------------------------------|
G|------------------------------------------|
D|9/11-11-11-9-9-7-7-9/11-11-11-14-14-7-9-11|
A|------------------------------------------|
E|------------------------------------------|

e|-----------------------------------|
B|-----------------------------------|
G|-----------------------------------|x4 verses
D|-----------------------------------|
A|3-33-5-3-5-3-5--10-88-10-8-10-8-10-|
E|-----------------------------------|

e|-------------------------------------------|
B|-------------------------------------------|
G|-------------------------------------------|
D|-------------------------------------------|
A|-------------------------------------------|yeah, what, yeah
E|0-00-3-0-0-3-0-0-3-5|0-00-3-0-0-3-0-0-3-5-5|X4

e|--------------------------|
B|--------------------------|
G|--------------------------|
D|3-6-4-----3-6-4-3---3--6-4|
A|--------------------------|
E|--------------------------|


e|------------------------------------------|
B|------------------------------------------|
G|------------------------------------------|
D|9/11-11-11-9-9-7-7-9/11-11-11-14-14-7-9-11|
A|------------------------------------------|
E|------------------------------------------|

e|--10h12--------10h12|
B|9--------11-9-------|
G|--------------------|
D|--------------------|
A|--------------------|
E|--------------------|

e|-----------------------------------|
B|-----------------------------------|
G|-----------------------------------|x4 verses
D|-----------------------------------|
A|3-33-5-3-5-3-5--10-88-10-8-10-8-10-|
E|-----------------------------------|

e|-------------------------------------------|
B|-------------------------------------------|
G|-------------------------------------------|
D|-------------------------------------------|
A|-------------------------------------------|yeah, what, yeah
E|0-00-3-0-0-3-0-0-3-5|0-00-3-0-0-3-0-0-3-5-5|X4

e|--------------------------|
B|--------------------------|
G|--------------------------|
D|3-6-4-----3-6-4-3---3--6-4|
A|--------------------------|
E|--------------------------|

      ending
e|-------------------------------------------|
B|-------------------------------------------|
G|-------------------------------------------|
D|-------------------------------------------|
A|-------------------------------------------|yeah, what, yeah
E|0-00-3-0-0-3-0-0-3-5|0-00-3-0-0-3-0-0-3-5-5|X4
Tap to rate this tab
 
# A B C D E F G H I J K L M N O P Q R S T U V W X Y Z