Song name
# A B C D E F G H I J K L M N O P Q R S T U V W X Y Z

Misc Unsigned Bands - My Strange Addiction - 6 Feet Under tab

This is the second song that is on the bands first album, it is awesome, and easy 
to a point. Enjoy :)

h= hammer on
p= Pull off
/= Slide down
\= Slide up
*= Pinch harmonic
b= Bend
r= Release bend
^= fast alternate picking
~= Let note ring
pm= palm mute


Intro (fade in) X8:

E|----------------------------------------|
B|----------------------------------------|
G|----------------------------------------|
D|--------------------------4-4-4-4-4-4---|
A|-2--2-2-2-2--2-2-2-2--2-2-4-4-4-4-4-4-2-|
E|-0--0-0-0-0--0-0-0-0--0-0-1-1-1-1-1-1-0-|
  pm......................................


Main riff X4:

E|----------------------------------------|
B|----------------------------------------|
G|----------------------------------------|
D|--------------------------4-444-4-4-4---|
A|-2--2-2-2-2--2-2-2-2--2-2-4-444-4-4-4-2-|
E|-0--0-0-0-0--0-0-0-0--0-0-1-111-1-1-1-0-|
      pm...    pm...          pm.....


Verse Riff X4:

E|----------------------------------------|
B|----------------------------------------|
G|----------------------------------------|
D|--------------------------4-4-4-4-4-4---|
A|-2--2-2-2-2--2-2-2-2--2-2-4-4-4-4-4-4-2-|
E|-0--0-0-0-0--0-0-0-0--0-0-1-1-1-1-1-1-0-|
      pm...    pm...          pm.....


Chorus X4:

E|----------------------------------|
B|----------------------------------|
G|----------------------------------|
D|-7---------5-7-8-7----------------|
A|-7--2-2-2--5-7-8-7--2-222-222-222-|
E|-5--0-0-0--3-5-6-5--0-000-000-000-|
      pm...             pm.........


then its the main riff again, then the verse riff,
then the chorus, then this:

E|-------------------------|
B|-------------------------|
G|-------------------------|
D|-5~~~-----7~~~-----2~~~--|
A|-5~~~-----7~~~-----2~~~--|
E|-3~~~-----5~~~-----0~~~--|


Breakdown X8 (solo plays after the 4rth to the 8th):

E|-------------------    E|-------------------|
B|-------------------    B|-------------------|
G|-------------------    G|-------------------|
D|----------55557777- X3 D| ---------7\5-5\4~-|
A|-2-2-2----33335555-    A|-2-2-2----5\3-3\1~-|
E|-0-0-0----33335555-    E|-0-0-0-------------|
   pm.                      pm.


Breakdown 2 X4:

E|-----------------------|
B|-----------------------|
G|-----------------------|
D|-----------------------|
A|-2-2-2----22222222-2-2-|
E|-0-0-0----00000000-0-0-|
   pm.      pm......

Then its just the breakdown again for 4 times, then main riff
verse, chorus, then it ends.
Tap to rate this tab
# A B C D E F G H I J K L M N O P Q R S T U V W X Y Z