Song name
# A B C D E F G H I J K L M N O P Q R S T U V W X Y Z

Misc Unsigned Bands - Plug In Baby - Abandonnation tab

Artist:Abandonation
Song:Plug in Baby (cover)
Album:Origin of Symmetry
Originally made by Muse
Guitar Lgnd.                                       Standard Tuning
x- dead mute
=-let ring
/-Slide up
\-Slide down
.-Palm mute
h-Hammer on
p-Pull of
t-tap
b- bend
br-Bend and release
||:  :||- repeat
Riff
 x2
e||:----------------|-----------------|----------------|------------------|
B||:----------------|------7h8p7------|----------------|-----7-7h8p7-6-7-6|
G||:------6----6-7--|-6-7-9------9-7-6|---6-7---6-7-9-6|-7-9--------------|
D||:--8-9---8-9----9|-----------------|-9-----9--------|------------------|
A||:----------------|-----------------|----------------|------------------|
E||:----------------|-----------------|----------------|------------------|


e----------------|-----------------:||-----------------|------------------|
B--7===========79|-9br-7-6-7-------:||-----------------|------------------|
G----7=======7===|-----------7-6-7-:||------6-----6-7--|------------------|
D------7===7=====|-----------------:||--8-9---8-9------|9-----------------|
A--------9=======|-----------------:||-----------------|------------------|
E----------------|-----------------:||-----------------|------------------|

Note 1#-PM if you want me to extend Plug in Baby, PM me

Note 2#-This is my first tab, so please don't judge it terribly or anything like that. 
Just give a polite notice for the error.

Note 3#-Abandonation is my band, and yet still to make a video of some sort.
Tap to rate this tab
# A B C D E F G H I J K L M N O P Q R S T U V W X Y Z