Song name
# A B C D E F G H I J K L M N O P Q R S T U V W X Y Z

Misc Unsigned Bands - Weeping Insanity - The Darkest Nights tab

Sinister Insanity Again, and this is My first tabed song redone and finished. Enjoy and rate well.

E|-------------------------------------------------------------|
B|-------------------------------------------------------------|
G|-------------4-----------------4-----------------4-----------|
D|----------5-----5-----------5-----5-----------5-----5--------|
A|-------4-----------4-----4-----------4-----4-----------4-----|
D|--0-------------------0-----------------0-----------------0--|



E|-----------------------------------------------------------------|
B|---------------3-----------------3-----------------3-------------|
G|------------4-----4-----------4-----4-----------4-----4----------|
D|---------3-----------3-----3-----------3-----3-----------3-------|
A|-----------------------------------------------------------------|
D|--0/2-------------------2-----------------2-----------------2r0--|



E|--13p11-----------------------------------|
B|---------12p10----------------------------|
G|----------------12p11---------------------|
D|-----------------------11p9---------------|
A|-----------------------------10p8---------|
D|-----------------------------------1/12v--|



E|----------------------------------------------15h17-------------------------------------------|
B|--12----10h12--13----10h12--13--12--10--12-----------15h16------------------------------------|
G|------------------------------------------------------------15h17-----------------------------|
D|-------------------------------------------------------------------16h17----------------------|
A|--------------------------------------------------------------------------15h16h17------------|
D|------------------------------------------------------------------------------------17\2v-----|



E|-----------------------------------------------------------------------------|
B|-----------------------------------------------------------------------------|
G|-----------4-----------------4-----------------4-----------------4-----------|
D|--------5-----5-----------5-----5-----------5-----5-----------5-----5--------|
A|-----4-----------4-----4-----------4-----4-----------4-----4-----------4-----|
D|--0-----------------0-----------------0-----------------0-----------------0--|



E|-----------------------------------------------------------------------------|
B|-----------3-----------------3-----------------3-----------------3-----------|
G|--------4-----4-----------4-----4-----------4-----4-----------4-----4--------|
D|-----3-----------3-----3-----------3-----3-----------3-----3-----------3-----|
A|-----------------------------------------------------------------------------|
D|--2-----------------2-----------------2-----------------2-----------------2--|



E|-----------5-----------------5-----------------5-----------------5-----------|
B|--------4-----4-----------4-----4-----------4-----4-----------4-----4--------|
G|-----5-----------5-----5-----------5-----5-----------5-----5-----------5-----|
D|-----------------------------------------------------------------------------|
A|-----------------------------------------------------------------------------|
D|--4-----------------4-----------------4-----------------4-----------------4--|



E|--------------------------------------------------------------------------------------|
B|--------------------------------------------------------------------------------------|
G|--------4--------4--------4--------6--------6--------6--------6--------4--------4-----|
D|--3--5-----3--5-----3--5-----3--5-----5--7-----5--7-----5--7-----3--5-----3--5-----3--|
A|--------------------------------------------------------------------------------------|
D|--------------------------------------------------------------------------------------|



E|--------------------------------------------------------------------------------------|
B|--------------------------------------------------------------------------------------|
G|--------------------------------------------------------------------------------------|
D|--------2--------2--------2--------2--------4--------4--------4--------2--------2-----|
A|--1--3-----1--3-----1--3-----1--3-----1--3-----3--5-----3--5-----3--5-----1--3-----1--|
D|--------------------------------------------------------------------------------------|

Pick Quick
E|--------------------------------------14--12--11--14--12--11-------------------------------------|
B|--12--14--13--12--14--13--12--14--13---------------------------------------------------13v--14v--|
G|--------------------------------------------------------------14--13--11--14--13--11v------------|
D|-------------------------------------------------------------------------------------------------|
A|-------------------------------------------------------------------------------------------------|
D|-------------------------------------------------------------------------------------------------|



E|--3h12--3h12--3h12--3h12--3h12--3h12--6h12--6h12--6h12--6h12--6h12--6h12--9h12--9h12-----|
B|-----------------------------------------------------------------------------------------|
G|-----------------------------------------------------------------------------------------|
D|-----------------------------------------------------------------------------------------|
A|-----------------------------------------------------------------------------------------|
D|-----------------------------------------------------------------------------------------|



E|--11h12--11h12--11\3h12v--|
B|--------------------------|
G|--------------------------|
D|--------------------------|
A|--------------------------|
D|--------------------------|

Pick`n quick again
E|--17--15---------------------------------------------------------------------------------------|
B|----------18--17--15---------------------------------------------------------------------------|
G|----------------------17--16-------------------------------------------------------------------|
D|------------------------------17--15--14---------------------------------------------9--10-----|
A|------------------------------------------17--15--14-------------------------10--12------------|
D|------------------------------------------------------20--19--17\10--12--13--------------------|

Quick
E|-----------------------------10--12--13\3--|r
B|-----------------10--12--13----------------|
G|------9--10--12----------------------------|
D|--12---------------------------------------|
A|-------------------------------------------|
D|-------------------------------------------|

just repeat the intro
E|-------------------------------------------------------------------------------|
B|-------------------------------------------------------------------------------|
G|-----------4-----------------4-----------------4-----------------4-------------|
D|--------5-----5-----------5-----5-----------5-----5-----------5-----5----------|
A|-----4-----------4-----4-----------4-----4-----------4-----4-----------4-------|
D|--0-----------------0-----------------0-----------------0-----------------0----|
Tap to rate this tab
 
# A B C D E F G H I J K L M N O P Q R S T U V W X Y Z