Song name
# A B C D E F G H I J K L M N O P Q R S T U V W X Y Z

Misc Unsigned Bands - Park Jefferson - Better Boy Acoustic tab

Park Jefferson - Better Boy
 tuned - DAEAC#E capo 4

BASED OFF ALL ON THIS VERSION
http://www.youtube.com/watch?v=2pl7CtF4I98


(h) hammer-on
(p) pull off
(parentheses) optional
(/)or(\) slide up/down


Guitar 1/2
Intro

E-----------------------------------------------------*--0----|end with
C#-----------------------------------1h3p1p0------0---*--0----|open strum
A---0--0---2h4p2p0------0-----0--0-----------0h2p0-(0)*--0----|
E------------------0h4p0-0----------------------------*--0----|
A-----------------------------------------------------*--0----|
D--4--2--0-------------------4--2--0------------------*--0----|


Guitar 2
Played with the intro bit, it's something like this i guess

E-----------------------------------------------------------|
C#----------------------------------------------------------|
A--------0-------0------------------------------------------|
E---0h2\4-4h5p0-4--5\7\9\12---------------------------------|
A-----------------------------------------------------------|
D-----------------------------------------------------------|
________________________________________________________________

Guitar 1/2
strums

E---------|
C#--------|
A---------|
E--5-4-5--|
A--4-2-0--|
D--4-2-0--|
_________________________________________________________________

Guitar 1
Noodles after the strums

E-----------------(2p0-0-)-----------------(2h3p2p0-----0-)---|
C#-----3--------------(-0-)--------3-------------(-0h1p0-)----|
A---2\4-4--------------(-0-)----2\4-4-------------------------|
E-------------0--------------------------0--------------------|
A---------4-2-0----------------------4-2-0--------------------|
D--0------4-2-0---------------0------4-2-0--------------------|

Guitar 2
played along with guitar 1 noodles

E-----------------------------------------------------------|
C#----------------------------------------------------------|
A--5/7\5-2/4---5/7\5\2p0------------------------------------|
E-----------------------------------------------------------|
A-----------------------------------------------------------|
D-----------------------------------------------------------|
__________________________________________________________________


Guitar 1/2
Palmutecore

********     end with this not palmuted
E-------*---0-0----|
C#-0----*---0-0----|
A--0-(4)*---0-0----|
E--0--4-*---5-4----|
A--0--2-*---2-2----|
D--0--2-*---2-2----|
__________________________________________________________________

Guitar 1
Best part of the song comes after the palmutes

E--0-0-0-0-0-*----------------------|
C#-0-0-0-0-3-*----------(-3-)-------|
A--0-0-0-0-0-*----(2/4\2/4-4\2p0)---|
E--5\4-4/5-5-*----------------------|
A--0-0h2/4-5-*----------------------|
D--0-0h2/4-0-*----------------------|

Guitar 2ish
Uh it kind sounds like this is in it

E---0--0---------------------------0--0-----------------|
C#--0--0---------------------------0--0-----------------|
A---0-(2p0)keep pulling off on it-/4-(7p0)-same thing---|
E---5--4------------periodicly----/5--5-----------------|
A---0--0---------------------------0--0-----------------|
D---0--0---------------------------0--0-----------------|
___________________________________________________________________


Guitar 1
more twinkly noodle whatever parts

E---0-------0--------*------0------0------*--------------|
C#-----------0----0--*----0--0-0----0---0-*--------------|
A----2/4---0-------0-*-----0--0---0------0*--------------|
E---------------0----*---0-------------0--*--------------|
A--------------------*--------------------*--4-2-0-------|
D--0------4----2-----*--0--------4----2---*--4-2-0-------|

Guitar 2

E-------------------------|
C#-------------1/3-0------|
A-----2-2h4/7-------2p0---|
E--2/4-4------------------|
A-------------------------|
D-------------------------|
______________________________________________________________

Guitar 1
knock knock knock

E---------|
C#--------|
A---------|
E--5-4-5--|
A--4-2-0--|
D--4-2-0--|

Guitar 2

E--0-0-0---|
C#-0-0-0---|
A--0-0-0---|
E--2-4-5---|
A--0-0-0---|
D--0-0-0---|
___________________________________________________________________

Ending bits

Guitar 1

E--0-0-0-0-*-0-0---|
C#-0-0-0-0-*-0-0---|
A--0-0-0-0-*-0-0---|
E--2-4-5-7-*-0-5---|
A--0-0-0-0-*-0-0---|
D--0-0-0-0-*-0-0---|


Guitar 2

E-----0----0-----------*--0-0-0-*--0-0----|
C#-------------0----0--*--0-0-0-*--0-0----|
A---0--0--0-0-4-4-7--0-*--7\5-0-*--0-0----|
E--2-----4---5-----5---*--9\7\5-*--0-5----|
A----------------------*--0-0-0-*--0-0----|
D----------------------*--0-0-0-*--0-0----|
Tap to rate this tab
 
# A B C D E F G H I J K L M N O P Q R S T U V W X Y Z