Song name
# A B C D E F G H I J K L M N O P Q R S T U V W X Y Z

Misc Unsigned Bands - Mark - Voz tab

MARK - VOZ (PHRASE):

Introdução/Versos:
e|---------------|
B|---------------|
G|---------------|
D|---------------|
A|---2-5-2---2---|
E|-0-------5---0-|4x

e|--------------------------|
B|--------------------------|
G|--------------------------|
D|--------------------------|
A|-2-5--5-7-2--2-5-2----2---|
E|--------------------5---0-|


Pre-Refrão/Refrão:
e|---------|
B|---------|
G|---7-9-7-|
D|-9-7-9-7-|
A|-9-5-7-5-|
E|-7-------|


Solo:
e|---------------------------------------------|
B|---------------------------------------------|
G|-------7-9-9-9^-9-9-7-------7-9-7-9^-7-------|
D|-7/9-9----------------9-7-9------------9-7-9-|
A|---------------------------------------------|
E|---------------------------------------------|

e|--------------------------|
B|--------------10-7---10---|
G|-----7-9-7--7------9----9-|
D|-7-9----------------------|
A|--------------------------|
E|--------------------------|

e|--------|
B|-10-7---|
G|------9-|
D|--------|
A|--------|
E|--------|4x

e|------------|
B|------------|
G|-7---7-9^-7-|
D|---9--------|
A|------------|
E|------------|

e|--------------------------|
B|--------------------------|
G|-4-7--7-9-4--4-7-4--2-4---|
D|------------------------2-|
A|--------------------------|
E|--------------------------|

e|--------------------------|
B|--------------------------|
G|-4-7--7-9-4--4-7-4--2-4---|
D|-x-x--x-x-x--x-x-x------2-|
A|-2-5--5-7-2--2-5-2--------|
E|--------------------------|


Letra:
Preconceito Infinito
Julgamento em conflito
Tudo isto deveria acabar
Tudo o que eu tenho escrito
É aquilo que necessito
Que não importe se eu não rimar

Pre-Refrão:
Tanto ficou por ser entendido
Esta é a hora de ser ouvido

Refrão:
Mas haverá alguém por aí
Que ouça a voz do artista?
Mas haverá alguém por aí
Que pare de ser egoísta?

Preconceito Infinito...
Julgamento em conflito...
Tudo o que eu tenho escrito
É aquilo que necessito
Que não me julguem se eu não rimar

Refrão:
Mas haverá alguém por aí
Que ouça a voz do artista?
Mas haverá alguém por aí
Que pare de ser egoísta?

-SOLO-

Refrão:
Mas haverá alguém por aí
Que ouça a voz do artista?
Mas haverá alguém por aí
Que pare de ser egoísta?
Mas haverá alguém por aí
Que perceba a dor do artista?
Mas haverá alguém por aí
Que lhes dê uma alma optimista?

A dor que sinto é...
A de ser julgado...
E de não ser ouvido.


Tab by:
MARK - www.mark.pt.la
Tap to rate this tab
 
# A B C D E F G H I J K L M N O P Q R S T U V W X Y Z