Song name
# A B C D E F G H I J K L M N O P Q R S T U V W X Y Z

Misc Unsigned Bands - Armani Mahadeo - From Where I Stand chords

Highlighted       Show chord diagrams
Capo on 4th
C:  E-------------------------|
    B-------------------------|
    G------------0------------|
    D------------2------(x16--|
    A------3------------------|
    E-------------------------|

Em:     E-----------------------|
        B-----------------------|
        G---------0-------------|
        D---------2------(x16---|
        A-----2-----------------|
        E-----------------------|

D/E:    E-----------------------|
        B-----------------------|
        G---------0-------------|
        D---------2-------(x16--|
        A-----0-----------------|
        E-----------------------|

A/F:    E------------------------|
        B------------------------|
        G-------2----------------|
        D-------3-----(x16)------|
        A----0-------------------|
        E------------------------|
Repeat the chords for each verse

 C          Em                                            D/E
From where I stand your heart seems cold
   A/F                                       Am/F
Just know that you're not alone

Me and you are in this together

But together doesn't mean forever

From where I stand you hang your head
Don't listen to the words they said
Just brush it off and you know-oh
Just take a breath and let it go

Hold your head up high
Tap to rate this tab
# A B C D E F G H I J K L M N O P Q R S T U V W X Y Z