Song name
# A B C D E F G H I J K L M N O P Q R S T U V W X Y Z

Misc Unsigned Bands - The Starship Renegade - Resolution tab

Intro: (This is played as 8th notes but written as quarter notes to save time)

e-----------------------------------------------------------------------------|
b-----------------------------------------------------------------------------|
G-----------------------------------------------------------------------------|
D---5--5--5--5--7--7--7--7--9--9--9--9--7--7----------------------------------|
A---3--3--3--3--5--5--5--5--7--7--7--7--5--5----------------------------------|
D-----------------------------------------------------------------------------|

e-----------------------------------------------------------------------------|
b-----------------------------------------------------------------------------|
G-----------------------------------------------------------------------------|
D--5--5--5--5--5--5--5--5--7--7--7--7--7--7--7--7-----------------------------|
A--3--3--3--3--3--3--3--3--5--5--5--5--5--5--5--5-----------------------------|
D-----------------------------------------------------------------------------|


Verse 1:
e-----------------------------------------------------------------------------|
b-----------------------------------------------------------------------------|
:G----------------------------------------------------------------------------|
D---x--x--5--5--x--5--5--x--7-7-7-7--x--x--7--7--x--7--7--x--5-5-5-5----------|
A---x--x--7--7--x--7--7--x--7-7-7-7--x--x--7--7--x--7--7--x--5-5-5-5----------|
D-----------------------------------------------------------------------------|

e-----------------------------------------------------------------------------|
b-----------------------------------------------------------------------------|
G-----------------------------------------------------------------------------|(X3)
D---x--x--5--5--x--5--5--x--5--7-7-7-7--x--x--7--7--x--8-8-x-5-5--------------|
A---x--x--7--7--x--7--7--x--7--7-7-7-7--x--x--7--7--x--9-9-x-7-7--------------|
D-----------------------------------------------------------------------------|

Chorus:
e-----------------------------------------------------------------------------|
b-----------------------------------------------------------------------------|
G-----------------------------------------------------------------------------|
D---5--5--5--5--7--7--7--7--9--9--9--9--7--7----------------------------------|
A---3--3--3--3--5--5--5--5--7--7--7--7--5--5----------------------------------|
D-----------------------------------------------------------------------------|

e-----------------------------------------------------------------|
b-----------------------------------------------------------------|
G-----------------------------------------------------------------|
D--5--5--5--5--5--5--5--5--7--7--7--7--7--7--7--7-----------------|
A--3--3--3--3--3--3--3--3--5--5--5--5--5--5--5--5-----------------|
D-----------------------------------------------------------------|


e-----------------------------------------------------------------------------|
b-----------------------------------------------------------------------------|
G-----------------------------------------------------------------------------|
D---------------5-------------------------------------------------------------|(x2)
A--7-5-7-5-7---7-5------------------------------------------------------------|
D-----------------------------------------------------------------------------|

e---------------------------------|
b---------------------------------|
G---------------------------------|
D--9-9-9-9-7-7-7-7----------------|
A--7-7-7-7-5-5-5-5----------------|
D---------------------------------|




e--------------------------------------------------------------------------|
b--------------------------------------------------------------------------|
G--------------------------------------------------------------------------|
D---------------5----------------------------------------------------------|(x2)
A--7-5-7-5-7---7-5---------------------------------------------------------|
D--------------------------------------------------------------------------|

e--------------------------------------------------------|
b--------------------------------------------------------|
G--------------------------------------------------------|
D--5-5-5-5-5-5-5-5-7-7-7-7-7-7-7-7-----------------------|
A--3-3-3-3-3-3-3-3-5-5-5-5-5-5-5-5-----------------------|
D--------------------------------------------------------|

Verse 2:

e----------------------------------------|
b----------------------8-8-7-7-----------|
G----------------------7-7-7-7-----------|
D--x-x-9-9-x-9-9-x-----------------------|
A--x-x-7-7-x-7-7-x-----------------------|
D----------------------------------------|

e----------------------------------------|
b----------------------7~----------------|
G----------------------7~----------------|
D--x-x-9-9-x-9-9-x-----------------------|
A--x-x-7-7-x-7-7-x-----------------------|
D----------------------------------------|

e----------------------------------------|
b----------------------8-8-7-7-----------|
G----------------------7-7-7-7-----------|
D--x-x-9-9-x-9-9-x-----------------------|
A--x-x-7-7-x-7-7-x-----------------------|
D----------------------------------------|

e----------------------------------------|
b----------------------------------------|
G--------------9-7--7--------------------|
D--x-x-9-9-x-----9-----------------------| (X3)
A--x-x-7-7-x---------10-9----------------|
D----------------------------------------|

(Chorus)


Break:
e----------------------|
B----------------------|
G----------------------|
D--9-9--9--9-9---------|
A--7-7--7--7-7---------|
D----------------------|

Bridge:
e-------------------------------------------------|
b-------------------------------------------------|
G-------------------------------------------------|
D--2-2-2-2-2-2-2-2-0-0-0-0-0-0-0-0----------------|
A--2-2-2-2-2-2-2-2-0-0-0-0-0-0-0-0----------------| (X4)
D--2-2-2-2-2-2-2-2-0-0-0-0-0-0-0-0----------------|

Chorus (First Half)
End with “break” above
Tap to rate this tab
# A B C D E F G H I J K L M N O P Q R S T U V W X Y Z