Song name
# A B C D E F G H I J K L M N O P Q R S T U V W X Y Z

Misc Unsigned Bands - Co3 - Do Not Enter tab

Band: Co3 is a band from the United States who is not yet famous but is
getting there. The homepage for the band is www.co3.homestead.com

Song Title: “Do Not Enter"
Album: Co3
Transcribed By: NickNitro34
Tuning: Standard E

INTRO: Play 5X
E|-----3--------2---2----------0---------0---0---|
B|------3--------3---3----------3---------0---0--|
G|---0---0----2---2---2-----4----4---------3---3-|
D|--0-----0---0-----------44-------4--4---------|
A|------------------------2-----------4---------|
E|-3----------------------------------2---------|

Chorus
E|-3-3-3-3-3---3-3-3-3-3--3-3---2-2-2-2-2h3- 3p2-2-2-2-2--2-2|
B|-3-3-3-3-3---3-3-3-3-3--3-3---3-3-3-3-3----3---3-3-3-3--3-3|
G|-0-0-0-0-0---0-0-0-0-0--0-0---2-2-2-2-2----2---2-2-2-2--2-2|
D|-0-0-0-0-0---0-0-0-0-0--0-0---0-0-0-0-0----0---0-0-0-0--0-0|
A|-2-2-2-2-2---2-2-2-2-2--2-2---0-0-0-0-0----0---0-0-0-0--0-0|
E|-3-3-3-3-3---3-3-3-3-3--3-3---0-0-0-0-0----0---0-0-0-0--0-0|

E|---------------------------------------------------------|
B|-3-3-3-3-3---3-3-3-3-3--3-3------------------------------|
G|-4-4-4-4-4---4-4-4-4-4--4-4---3-3-3-3-3/4--4-4-4-4-4--4-4|
D|-4-4-4-4-4---4-4-4-4-4--4-4---4-4-4-4-4/5--5-5-5-5-5--5-5|
A|-2-2-2-2-2---2-2-2-2-2--2-2---4-4-4-4-4/5--5-5-5-5-5--5-5|
E|------------------------------2-2-2-2-2/3--3-3-3-3-3--3-3|

And that's pretty much the whole song. It's very easy but very fun to play.
If you have any questions e-mail me at NickNitro34@yahoo.com
Tap to rate this tab
# A B C D E F G H I J K L M N O P Q R S T U V W X Y Z