Song name
# A B C D E F G H I J K L M N O P Q R S T U V W X Y Z

Misc Unsigned Bands - Worth The Wait - The Second Amendment Aint Bout Duck Huntin tab

-----------------------------------------------------------------------------
        The Second Amendment Ain't 'Bout Duck Huntin' - Worth The Wait
-----------------------------------------------------------------------------
Tabbed by: Hevioso13
E-mail: Hevioso13@gmail.com
Tuning: Drop C
-----------------------------------------------------------------------------
Hello, this is my first tab. I only managed to tab the intro, but i hope i'll do 
the rest soon. I'm sure it's accurate. 
Tempo ~110 bpm

D-|-----------------|------------------|
A-|-----------------|------------------|
F-|-----------------|------------------|
C-|-----------------|------------------|
G-|0~--585--7-10~---|0~--585---58---710|
C-|0~00---80-0---000|0~00---858--710---|

~~~0's are palm muted~~~~~~~~~~~~~^^these are 10's

D-|----------------------|-------------------|
A-|----------------------|-------------------|
F-|----------------------|-------------------|
C-|----------------------|----------------10~|
G-|---10-12-10-8-10-12108|---8-10-8-7-1087---|
C-|888--8--8--8-8--8-----|777-7--7-7-7-------|

~~~8's are PM~~~~~~~~~~~~~7's are PM~~~~~~~~~

I hope it helps;
please, send my any corrections and feedback to Hevioso13@gmail.com
Cheers :)
Tap to rate this tab
# A B C D E F G H I J K L M N O P Q R S T U V W X Y Z