Song name
# A B C D E F G H I J K L M N O P Q R S T U V W X Y Z

Misc Unsigned Bands - Carnabells - Station Road tab

This is the tab for the guitar solo from Station Road by the new 'coal mine rock' 
band, Carnabells.
Enjoy!


  A                   A                   A                   A
|-------------------|-------------------|-------------------|-------------------|
|----------14-14-14-|----------14-14-14-|----------14-14-14-|----------14-14-14-|
|----------14-14-14-|----------14-14-14-|----------14-14-14-|----------14-14-14-|
|-12/14-16----------|-12/14-16----------|-12/14-16----------|-12/14-16----------|
|-------------------|-------------------|-------------------|-------------------|
|-------------------|-------------------|-------------------|-------------------|

  D                       D                      D 
|-----------------------|----------------------|-------------------------------|
|-----------------------|----------------------|-------------------------------|
|-------14------14------|-14-------14-------14-|-16b18-16b18-16b18r16-14----14-|
|-14h16---14h16---14h16-|----14h16----14h16----|-------------------------16----|
|-----------------------|----------------------|-------------------------------|
|-----------------------|----------------------|-------------------------------|

  D                    Bm                  Bm
|--------------------|-------------------|-------------------------------|
|--------------------|----------------14-|-14h15p14---14-14h15p14--------|
|-14----------14--16-|-16--16---14-16----|----------16-------------16-14-|
|----16-14-16--------|-------------------|-------------------------------|
|--------------------|-------------------|-------------------------------|
|--------------------|-------------------|-------------------------------|

  E                E                            A       A
|----------------|----------------------------|-------|-17-----|
|----------------|-------17-------17----------|-------|-x------|
|-16----------14-|-16b18----16b18----16b18r16-|-14--- |-14-----|
|--------14h16---|----------------------------|-------|--------|
|----------------|----------------------------|-------|--------|
|----------------|----------------------------|-------|--------|

Go to www.carnabells.com and check out their tunes!
Tap to rate this tab
# A B C D E F G H I J K L M N O P Q R S T U V W X Y Z