Song name
# A B C D E F G H I J K L M N O P Q R S T U V W X Y Z

Misc Unsigned Bands - Empathicity - Unknown tab

New band, new songs
We're a new band starting out of st albert alberta, this is one of our first
songs and we want to get it up quick. Please let us know what u think of it

(standard tuning)
Acoustic
Verse(Guitar 1)
------------------------------------
-2-2-0-0-0-0---6-0-4----------------
-2-2---2---2---4---2----------------         X2
-------1---1---4---2----------------
-------0---0------------------------
------------------------------------

Guitar 2
------------------------------------
-2-----2-0--0-0-0-0-0-0-0-----------
---2--------2-----2-----2-----------
-----1------1-----1-----1-----------
------------------------------------
------------------------------------
Guitar 2 (con't)
------------------------------------
--6-----6-4-------6-----6-0---------
----4-------2-------4-------2-------    X2
------4-------2-------4-------2-----
------------------------------------
------------------------------------

CHorus
-------7-7-7-------5-5-5------------
-9-9-9-5-5-5-7-7-7-3-3-3------------
-7-7-7-5-5-5-5-5-5-3-3-3------------
-7-7-7-------5-5-5------------------
------------------------------------
------------------------------------

By Empathicity
Tap to rate this tab
 
# A B C D E F G H I J K L M N O P Q R S T U V W X Y Z