Song name
# A B C D E F G H I J K L M N O P Q R S T U V W X Y Z

Misc Unsigned Bands - Barclay Ichinose - The Clown And The Giant Other Side tab

A - E - A - C
A - E - A - C

e|----------------------------------|
B|--0--------------0----------------|
G|----0--------------0--------------|
D|-----4----------------5-----------|
A|------2-----------------3---------|
E|-0------------0-------------------|

A - E - A - E
A - E - A - E


e|----------------------------------|
B|----------------------------------|
G|---4-6-7--------------------------|
D|---2-4-5--------------------------|
A|---2-4-5--------------------------|
E|----------------------------------|


A - E - A - Am
A - E - A - Am

e|----------------------------------|
B|--0--------------0----------------|
G|----0--------------0--------------|
D|-----4----------------5-----------|
A|------2-----------------3---------|
E|-0------------0-------------------|

A - E - A - E
A - E - A - E

e|----------------------------------|
B|--0--------------0----------------|
G|----0--------------0--------------|
D|-----4----------------5-----------|
A|------2-----------------3---------|
E|-0------------0-------------------|


e|----------------------------------|
B|----------------------------------|
G|---4-6-7--------------------------|
D|---2-4-5--------------------------|
A|---2-4-5--------------------------|
E|----------------------------------|

Official website: http://barclayandichinose.com/
Soundcloud: https://soundcloud.com/barclayichinose
Tap to rate this tab
# A B C D E F G H I J K L M N O P Q R S T U V W X Y Z