Song name
# A B C D E F G H I J K L M N O P Q R S T U V W X Y Z

Misc Unsigned Bands - Arjun - Speed Improving Exercises tab

                           #1

e|-----------------------------------------6-7-8-9 --|
b|---------------------------------5-6-7-8-----------|
g|-------------------------4-5-6-7-------------------|
d|-----------------3-4-5-6---------------------------|
a|---------2-3-4-5-----------------------------------|
E|-1-2-3-4-------------------------------------------|

                           #2

e|------------------------------------------------------------|
b|------------------------------------------------------------|
g|------------------------------------------------------------|
d|---------------------------------------1-2-3-4-1-2-4-1-3-4--|
a|--------------------1-2-3-4-1-2-4-1-3-4---------------------|
E|-1-2-3-4-1-2-4-1-3-4----------------------------------------|

  ---------------------------------------1-2-3-4-1-2-4-1-3-4--|
  --------------------1-2-3-4-1-2-4-1-3-4---------------------|
  -1-2-3-4-1-2-4-1-3-4----------------------------------------|
  ------------------------------------------------------------|
  ------------------------------------------------------------|
  ------------------------------------------------------------|

  Hope it helps , this was my first tab.
  there will be more
  THANK YOU
Tap to rate this tab
# A B C D E F G H I J K L M N O P Q R S T U V W X Y Z