Song name
# A B C D E F G H I J K L M N O P Q R S T U V W X Y Z

Misc Unsigned Bands - Taylor Fredricks - Chase Your Happiness But Leave Your Guilt With Me tab

[intro]

-------------------------------------------------------------|
-------------------------------------------------------------|
-9-9---11-11-11---12--12--12---14--14--14--14--14------------|        repeat 2 more times
-0-0---0--0--0-----0---0---0-----0---0---0---0---0-----------|
-7-7---9--9--9----10--10--10----12--12--12--12--12-----------|
-------------------------------------------------------------|


---------------------------------------------------|
---------------------------------------------------|
-14--14--14--14--14--14--14----11--11--11--11------|
--0---0---0---0---0---0---0-----0---0---0---0------|
-10--10--10--10--10--10--10----9---9---9---9-------|
---------------------------------------------------|


-------------------------------------------|
-------------------------------------------|
-------------------------------------------|
-2-2-2--2-2--x-x-x--2-2-2--2--2-2-2--2-----|    repeat 3 more times
-2-2-2--2-2--x-x-x--2-2-2--2--2-2-2--2-----|
-0-0-0--0-0--x-x-x--0-0-0--0--0-0-0--0-----|


---|
---|
---|
-2-|
-2-|
-0-|



[verses]

---------------------------------------------------------------|
---------------------------------------------------------------|
-----5-------5-------7-------7-------4-------4-------9---------|        repeat 3 more times
---5---5---5---5---7---7---7---7---4---4---4---4---9---9-------|
-3-------3-------5-------5-------2-------2-------7-------7--5--|
---------------------------------------------------------------|


[pre-chorus]


-----------------------------------------------------|
-----------------------------------------------------|
-5-5-5-5-5--7-7-7-7-7-7--4-4-4-4-4--9-9-9--7-7-------|
-5-5-5-5-5--5-5-5-5-5-5--2-2-2-2-2--9-9-9--7-7-------|
-3-3-3-3-3--5-5-5-5-5-5--2-2-2-2-2--7-7-7--5-5-------|
-----------------------------------------------------|


-------------|
-------------|
-------------|
-2-2-2--2-2--|   why do you, why do you..       (repeat 3 more times)
-2-2-2--2-2--|
-0-0-0--0-0--|


[chorus]


---------------------------------------------------------|
---------------------------------------------------------|
---------12--12-12-12-12-11--5--5--5--5-5---7-7-7-7-7-7--|     (repeat 2 more times)
-2--2-2---0---0--0--0--0--0--0--0--5--5-5---7-7-7-7-7-7--|
-2--2-2--10--10-10-10-10-9---3--3--3--3-3---5-5-5-5-5-5--|
-0--0-0--------------------------------------------------|


---------------------------------------------------|
---------------------------------------------------|
---------12--12-12-12-12-11--5--5--5--5-5---7------|
-2--2-2---0---0--0--0--0--0--0--0--5--5-5---7------|
-2--2-2--10--10-10-10-10-9---3--3--3--3-3---5------|
-0--0-0--------------------------------------------|


[play verse, pre-chorus, chorus]


-------------------------------------------|
-------------------------------------------|
-------------------------------------------|
-2-2-2--2-2--x-x-x--2-2-2--2--2-2-2--2-----|    repeat 3 more times
-2-2-2--2-2--x-x-x--2-2-2--2--2-2-2--2-----|
-0-0-0--0-0--x-x-x--0-0-0--0--0-0-0--0-----|


[bridge]


---------------------------------|
---------------------------------|
-5-5-5-5-5-5-5--7-7-7-7-7-7-7----|
-0-0-0-0-0-0-0--0-0-0-0-0-0-0----|
-3-3-3-3-3-3-3--5-5-5-5-5-5-5----|
---------------------------------|


---------------------------------------------------|
---------------------------------------------------|
-9-9---11-11-11---12--12--12---14--14--14--14------|
-0-0---0--0--0-----0---0---0-----0---0---0---0-----|
-7-7---9--9--9----10--10--10----12--12--12--12-----|
---------------------------------------------------|


---------------------------------|
---------------------------------|
-5-5-5-5-5-5-5--7-7-7-7-7-7-7----|
-0-0-0-0-0-0-0--0-0-0-0-0-0-0----|
-3-3-3-3-3-3-3--5-5-5-5-5-5-5----|
---------------------------------|


[post bridge]

-------------------------------------------------------------|
-------------------------------------------------------------|
-9-9---11-11-11---12--12--12---14--14--14--14--14------------|        repeat 2 more times
-0-0---0--0--0-----0---0---0-----0---0---0---0---0-----------|
-7-7---9--9--9----10--10--10----12--12--12--12--12-----------|
-------------------------------------------------------------|


---------------------------------------------------|
---------------------------------------------------|
-14--14--14--14--14--14--14----11--11--11--11------|
--0---0---0---0---0---0---0-----0---0---0---0------|
-10--10--10--10--10--10--10----9---9---9---9-------|
---------------------------------------------------|


[repeat post bridge but play last chord only once]


--------------|
--------------|
--------------|
-2-2-2--2-2---|        repeat 7 more times
-2-2-2--2-2---|
-0-0-0--0-0---|



[ending]


----------------------------------|
----------------------------------|
----------------------------------|      repeat 3 more times
-2-2-0-2---2-2-0-4-5-4-5----------|
-2-2-0-2---2-2-0-4-5-4-5----------|
-0-0-0-0---0-0-0-2-3-2-3----------|


-------------------------------------------|
-------------------------------------------|
-------------------------------------------|
-2-2-2--2-2--x-x-x--2-2-2--2--2-2-2--2-----|    repeat 3 more times
-2-2-2--2-2--x-x-x--2-2-2--2--2-2-2--2-----|
-0-0-0--0-0--x-x-x--0-0-0--0--0-0-0--0-----|



(harmonics part)

-12--7--5--|
-12--7--5--|
-12--7--5--|
-12--7--5--|
-12--7--5--|
-12--7--5--|


-------------------------------------------|
-------------------------------------------|
-------------------------------------------|
-2-2-2--2-2--x-x-x--2-2-2--2--2-2-2--2-----|    repeat 3 more times
-2-2-2--2-2--x-x-x--2-2-2--2--2-2-2--2-----|
-0-0-0--0-0--x-x-x--0-0-0--0--0-0-0--0-----|


[ending]

----------|
----------|
----------|
-2-2-0-2--|
-2-2-0-2--|
-0-0-0-0--|
Tap to rate this tab
 
# A B C D E F G H I J K L M N O P Q R S T U V W X Y Z