Song name
# A B C D E F G H I J K L M N O P Q R S T U V W X Y Z

Misc Unsigned Bands - Their Theyre There - 572 Cuthbert Blvd tab

-------------------------------------------------------------------------------
                             572 Cuthbert Blvd. - Their/They're/There
-------------------------------------------------------------------------------
Tabbed by: Nick M
E-mail:

Tuning:DADF#AD Capo 6

e|---------------------------------------------------------------------------|
B|---------------------------------------------------------------------------|
G|--0h1p0---------0-------0h1p0---------0------0h1p0----------0--------------|
D|------------0h2---2---------------0h2------------------0h2----2------------|
A|--------0h2-------------------0h2------------------0h2---------------------|
E|0--------------------0--------------------0--------------------------------|

e|------------------2------|
B|-0h2p0--------0h2---4-2-0|
G|-------0h3p0-------------|
D|-------------------------|
A|-------------------------|
E|-------------------------|

e|--------------------------------2---------------------------------|
B|------------------------------0--------------------------------0--|
G|------------------0---------------------------------0--------4----|
D|----------------2---2------0----------------------2---2----0------|
A|------------------------------------------------------------------|
E|-/4-2-0--0h2h4-------- x-5----------/4-2-0--0h2h4------ x-5-------|


                                           (last time only)
e|--------------------------2---------2---|----2-----2-----|
B|-----0----------0--------5-5-------5-5--|---5-5---5-5----|
G|----1-1--------1-1------0---0-----0---0-|--0---0-0---0---|  
D|---4---4------4---4----0---------0------|-0-----0-----0--|
A|--0----------0-------2---------0--------|----------------|
E|0----------2----------------------------|----------------|

Listen to the song for order and timing etc.
I'm not 100% percent on the last part there.
I probably missed a few grace notes and stuff but this is the basic skeleton of the song.
Tap to rate this tab
# A B C D E F G H I J K L M N O P Q R S T U V W X Y Z