Song name
# A B C D E F G H I J K L M N O P Q R S T U V W X Y Z

Misc Unsigned Bands - Told True - Always tab

-------------------------------------------------------------------------------
                             Always - Told True
-------------------------------------------------------------------------------
Tabbed by: Kyle


Tuning: Standard

Intro

e|---------------------------------------------------------------------------|
B|---------------------------------------------------------------------------|
G|---------------------------------------------------------------------------|
D|---6----9---7--6--4-----2-----4---4--2-------------------------------------|
A|---7-7--7---4--4--4-----0--0--0-0-0--0-0-----------------------------------|
E|---------------------------------------------------------------------------| x3

e|---------------------------------------------------------------------------|
B|---------------------------------------------------------------------------|
G|------------------------2--------------------------------------------------|
D|---6----9---7--6--4-----2--------------------------------------------------|
A|---7-7--7---4--4--4-----0--------------------------------------------------|
E|---------------------------------------------------------------------------|

Chorus/Main Riff

e|---------------------------------------------------------------------------|
B|---------------------------------------------------------------------------|
G|---------------------------------------------------------------------------|
D|---6----9---7--6--4-----2-----4---4--2-------------------------------------|
A|---7-7--7---4--4--4-----0--0--0-0-0--0-0-----------------------------------|
E|---------------------------------------------------------------------------|
     "We've been through..."
e|---------------------------------------------------------------------------|
B|---------------------------------------------------------------------------|
G|---------------------------------------------------------------------------|
D|---6----9---7--6--4-----2-----4---4--2-------------------------------------|
A|---7-7--7---4--4--4-----0--0--0-0-0--0-0-----------------------------------|
E|---------------------------------------------------------------------------|
      "Hard times were..."
e|---------------------------------------------------------------------------|
B|---------------------------------------------------------------------------|
G|---------------------------------------------------------------------------|
D|---6----6---4--4-------2-----4---4--2--------------------------------------|
A|---7-7--7---5--5-------0--0--0-0-0--0-0------------------------------------|
E|---------------------------------------------------------------------------|
       "Baby I tell it..."
e|---------------------------------------------------------------------------|
B|---------------------------------------------------------------------------|
G|---------------------------------------------------------------------------|
D|---6----9---7--6--4-----2--------------------------------------------------|
A|---7-7--7---4--4--4-----0--------------------------------------------------|
E|---------------------------------------------------------------------------|
        "Not the same without you."

Verse (palm muted)

e|---------------------------------------------------------------------------|
B|---------------------------------------------------------------------------|
G|---------------------------------------------------------------------------|
D|---------------------------------------------------------------------------|
A|--2-2-2-2-2-2-2-2--9-9-9-9-9-9-9-9--7-7-7-7-7-7-7-7-7-7-7-7-7-7-7-7--------|
E|--0-0-0-0-0-0-0-0--7-7-7-7-7-7-7-7--5-5-5-5-5-5-5-5-5-5-5-5-5-5-5-5--------|
            "New starts..."


With variation, etc.


Pre-chorus

e|---------------------------------------------------------------------------|
B|---------------------------------------------------------------------------|
G|---------------------------------------------------------------------------|
D|--11-11--9-9--7-7----------------------------------------------------------|
A|--11-11--9-9--7-7----------------------------------------------------------|
E|--9--9---7-7--5-5----------------------------------------------------------|
                    "I know it's hard for you..."
e|---------------------------------------------------------------------------|
B|---------------------------------------------------------------------------|
G|---------------------------------------------------------------------------|
D|--11-11--9-9--7-7----------------------------------------------------------|
A|--11-11--9-9--7-7----------------------------------------------------------|
E|--9--9---7-7--5-5----------------------------------------------------------|
                    "It's hard for me to..."
e|-----------------------------------------------------------------------------------|
B|--9--9---7-7--5-5------------------------------------------------------------------|
G|--9--9---8-8--6-6------------------------------------------------------------------|
D|--11-11--9-9--7-7------------------------------------------------------------------|
A|--11-11--9-9--7-7------------------------------------------------------------------|
E|--9--9---7-7--5-5------------------------------------------------------------------|
                    "But baby..."
e|-----------------------------------------------------------------------------------|
B|-----------------------------------------------------------------------------------|
G|-----------------------------------------------------------------------------------|
D|-4-4---6-6---7-7-------------------------------------------------------------------|
A|-4-4---6-6---7-7-------------------------------------------------------------------|
E|-2-2---4-4---5-5-------------------------------------------------------------------|
                    "Couldn't be the same."
Tap to rate this tab
 
# A B C D E F G H I J K L M N O P Q R S T U V W X Y Z