Song name
# A B C D E F G H I J K L M N O P Q R S T U V W X Y Z

Misc Unsigned Bands - Barclay Ichinose - Night Draws Nigh tab

Intro
e|----------------------------------| 
B|----------------------------------| 
G|--------------------0---0---------| 
D|-----0------------2---0-----------| 
A|---0----2---5---3---2-------------| 
E|--3----2--------------------------| 

"Am I sitting..."
e|----------------------------------| 
B|----------------------------------| 
G|----------------------------------|
D|----------------------------------| 
A|--7---5---10--9-------------------| 
E|--5---3---8---7-------------------|

e|----------------------------------| 
B|----------------------------------| 
G|----------------------------------|
D|----------------------------------| 
A|--7---5---9--10-------------------| 
E|--5---3---7---8-------------------| 
 Pre-Rit
e|----------------------------------| 
B|----------------------------------| 
G|----------------------------------|
D|---------------9\-----------------| 
A|---------------10\----------------| 
E|-0-0-0-0-0-0----------------------| 

Rit

e|----------------------------------| 
B|----------------------------------| 
G|----------------------------------|
D|-----------4--7----2-0------------| 
A|--5---4---2--5----3-2-------------| 
E|--3---2---------------------------| 

Post-rit

e|----------------------------------| 
B|----------------------------------| 
G|----------------------------------|
D|---------------------9------------| 
A|----9-10-9-10-9-10----------------| 
E|-0-0------------------------------| 

e|----------------------------------| 
B|----------------------------------| 
G|----------------------------------|
D|---------------------12-----------| 
A|----9-10-9-10-9-10----------------| 
E|-0-0------------------------------| 

e|----------------------------------| 
B|----------------------------------| 
G|----------------------------------|
D|---------------------9------------| 
A|----9-10-9-10-9-10----------------| 
E|-0-0------------------------------|
 
e|----------------------------------| 
B|----------------------------------| 
G|----------------------------------|
D|----------------------------------| 
A|----9-10-9-10-9-10--12------------| 
E|-0-0------------------------------| 


http://barclayandichinose.com
Tap to rate this tab
 
# A B C D E F G H I J K L M N O P Q R S T U V W X Y Z