Song name
# A B C D E F G H I J K L M N O P Q R S T U V W X Y Z

Misc Unsigned Bands - Samuel Law - Let Freedom Reign tab

INTRO

ELECTRIC 2

E|----------|
B|----------|
G|----------|
D|-11-12-14-|  2X
A|----------|
E|----------|

INTRO (Part 2)

ELECTRIC 1

E|-------------------------|
B|-------17-14-12-17-14-17-|
G|-14-13-------------------|
D|-------------------------| (each note is play a # of times listen to the
A|-------------------------|  song to get an accurate count)
E|-------------------------|

Electric 2

E|------------|
B|------------|
G|----7-----7-|
D|-7--7--4--7-|
A|-7--5--4--5-|
E|-5-----2----|

VERSE

ELECTRIC 2

This part is picked            Picking Pattern
E|---------------|             |------ ------|
B|---------------|             |------ ------|
G|----9--11--11--| ------->    |------ ---x--|
D|-7--7--9---9---|             |---x-- --x-x-|
A|-7--5--7---7---|             |--x-x- -x----|
E|-5-------------|             |-x---- ------|


CHORUS

ELECTRIC 2

E|------------|
B|------------|
G|----7-----7-|
D|-7--7--4--7-|
A|-7--5--4--5-|
E|-5-----2----|

ELECTRIC 1

E|--------|
B|--------|
G|-14--13-| (listen to the song for the strumming pattern)
D|-x---x--|
A|-12--11-|
E|--------|

BRIDGE

ELECTRIC 2

This is picked
E|-------|
B|-------|
G|-9--11-|
D|-7--9--|
A|-5--7--|
E|-------|
Tap to rate this tab
# A B C D E F G H I J K L M N O P Q R S T U V W X Y Z