Song name
# A B C D E F G H I J K L M N O P Q R S T U V W X Y Z

Misc Unsigned Bands - Park Jefferson - Astronauts tab

So.. this is a simplified version I made to play on my acoustic guitar and I'm 
definitely sure it's not 100% correct. 

Nonetheless, it's easy to play and sing! Just listen to the song a few times for 
the rhythm and timings. Thanks!

Park Jefferson - Astronauts
Tuning FACGCE - Capo 1

Intro (kinda..?)
E|-0--0--|
C|-7--7--|
G|-9-10--|
C|-------|
A|-------|
F|-------|

I can't shake.. this constant headache...  
E|-0---0---0---0-|
C|-7---7---4---4-|
G|-0---0---0---0-|
C|-0---0---0---0-|
A|-0---0---0---0-|
F|-7---7---4---0-|

(this progression is pretty much most of the song)

Twinkley part
E|--3-3---------------3-3-------------3-3---------------3-3----------|
C|---4---2h4-2-0-0-----4--4h5-4-2-0----4----2h4-2-0-0----4-----0-----|
G|--------------4----------------------------------4----------4-4----|
C|------0----------------0-----------------0-------------------------|
A|-------------------------------------------------------------------|
F|-0-----------------0---------------0-----------------0-----2-------|


(Chorus?) 
Nights alone, these are the last ones, love...
E|-0--0--0--0--|
C|-4--7--2--5--|
G|-0--0--0--0--|
C|-0--0--0--0--|
A|-0--0--0--0--|
F|-0--7--2--5--|


One day I swear we'll be okay..
E|-0---0---0---0-|
C|-7---7---4---4-|
G|-0---0---0---0-|
C|-0---0---0---0-|
A|-0---0---0---0-|
F|-7---7---4---0-|

Little synth part
E|----------|
C|-7--7---4-|
G|--5--5-7--|
C|----------|
A|----------|
F|----------|

Outro
E|-0---0---0---0-|
C|-7---7---4---4-|
G|-0---0---0---0-|
C|-0---0---0---0-|
A|-0---0---0---0-|
F|-7---7---4---0-|

End chord
E|-0-|
C|-7-|
G|-0-|
C|-0-|
A|-0-|
F|-7-|




LYRICS:

I can't shake this constant headache. 
On my back, just like always. 
The cold air, tearing up, my fucking lungs once again.

Nights alone. These are the last ones, love.

One day I swear we'll be okay - 
when this winter is over and we're rid of this cold air. 
One day we'll be together again. 
When I've finally grown up and you decide to move home.
Tap to rate this tab
# A B C D E F G H I J K L M N O P Q R S T U V W X Y Z