Song name
# A B C D E F G H I J K L M N O P Q R S T U V W X Y Z

Misc Unsigned Bands - Keyes - Eleanor Lamb tab

-------------------------------------------------------------------------------
                            ELEANOR LAMB - Keyes
-------------------------------------------------------------------------------
Tabbed by: CrashAshes43
E-mail: xgib50nking@yahoo.com

Tuning: Drop C# (C# G# C# F# A# D#)

Section - Guitar(s) [Effect] (Start time - End Time)
Got it? Good.

Song: Eleanor Lamb
Artist: Keyes
Album: Therefore/Without
Genre: Skramz/Post-Hardcore
Released: September 21st, 2011

Guitar 1 - Kyle Allen (Left channel)
Guitar 2 - Ian Alvarez (Right channel)

Intro - Guitar 1 [Clean/Reverb] (0:00 - 0:14)
D#|--------------------------------------------------------------------------|
A#|--------------------------------------------------------------------------|
F#|--------------------------------------------------------------------------|
C#|-11~~------------------------------------------------------------9~~------| x2
G#|----------------------0~~------------------11~~---------------------------|
C#|--------------------------------------------------------------------------|

        Guitar 2 [Clean] (0:00 - 0:14)
D#|--------------------------------------------------------------------------------|
A#|----12---9---12---9------12---9---12---9------9--------9----------9-----9-----9-|
F#|-------9-------(9)----------9-------(9)------------9--------9-------8-----8-----|
C#|-11-------------------11------------------------11------(11)----9-----9-----9---|
G#|-------------------------------------------11-----------------------------------|
C#|--------------------------------------------------------------------------------|
  
D#|----------------------------------------------------------------------0-----0---|
A#|----12---9---12---9------12---9---12---9------9--------9----------9-----9-----9-|
F#|-------9-------(9)----------9-------(9)------------9--------9-------8-----8-----|
C#|-11-------------------11------------------------11------(11)----9---------------|
G#|-------------------------------------------11-----------------------------------|
C#|--------------------------------------------------------------------------------|



Intro - Guitar 1 [Distortion/Reverb] (0:14 - 0:27)
D#|-16///////----19///////----14///////----12///////-|
A#|--------------------------------------------------|
F#|--------------------------------------------------|
C#|--------------------------------------------------| x2
G#|--------------------------------------------------|
C#|--------------------------------------------------|

        Guitar 2 [Distortion] (0:14 - 0:27)
D#|----------------------------------------0-0---0-0-|
A#|-12-12-12-12--12-12---12---9--9--9--9---9-9---9-9-|
F#|-9--9--9--9---9--9----9----9--9--9--9---8-8---8-8-|
C#|-11-11-11-11--11-11---11---11-11-11-11--9-9---9-9-| x2
G#|---------------------------11-11-11-11------------|
C#|--------------------------------------------------|



Verse - Guitar 1 [Distortion/Reverb] (0:27 - 0:40)
D#|-16\---14--16\---14--12\---11--12---12/14-14-|
A#|---------------------------------------------|
F#|---------------------------------------------|
C#|---------------------------------------------|
G#|---------------------------------------------|
C#|---------------------------------------------|

        Guitar 2 [Distortion] (0:27 - 0:40)
D#|-------------------|
A#|-5-----9------7----|
F#|-6-----11-----9----|
C#|-x-x6--x--x3--x-x3-| x4
G#|-4-----9------7----|
C#|-------------------|



Verse - Guitar 1 [Distortion/Reverb] (0:40 - 0:53)
D#|-12-------------------12---------------------|
A#|-----12--14------12-------12--14-------------|
F#|------------13-------------------13--11--/13-|
C#|---------------------------------------------| x2
G#|---------------------------------------------|
C#|---------------------------------------------|

        Guitar 2 [Distortion] (Distortion] (0:27 - 0:40)
D#|(4)-------------------------------------------|
A#|----------------------------------------------|
F#|-6------11------9------8----------------------|
C#|-x-x12--9-x12---6------9------x-x-pb7pbr6b7b6-|
G#|-4------11------7-x12--7-x7-------------------|
C#|----------------6------9----------------------|



Verse - Guitar 1 [Distortion] (0:53 - 1:20)
D#|---------------0--|-----0-0-0-|----------|
A#|-----12-9--9---9--|-9---9-9-9-|-9--9--9--|
F#|-----------9---8--|-9---8-8-8-|-9--9--9--|
C#|---9-------11--9--|-11--9-9-9-|-11-11-11-|
G#|-----------11-----|-11--------|-11-11-11-|
C#|------------------|-----------|----------|

        Guitar 2 [Distortion] (0:53 - 1:20)
D#|---------------------------|-4--0-0-0-|-4-4-4-|
A#|---------------5--7h9p7----|-5--4-4-4-|-5-5-5-|
F#|-------4---4h6----------9\-|-6--4-4-4-|-6-6-6-|
C#|----2----------------------|----------|-------|
G#|-4-------------------------|----------|-------|
C#|---------------------------|----------|-------|



Interlude - Guitar 1 [Clean] (1:20 - 1:48)
D#|------------------------------------------------|
A#|-----9~~----12---------------9~~----12----------|
F#|-9~~-9~~-11-13-4~~-6--8--9~~-9~~-11-13-4~~-6--8-|
C#|-9~~-11~-13-14-7~~-7--9--9~~-11~-13-14-7~~-7--9-|
G#|---------------0~~-7--9--11~-----------0~~-7--9-|
C#|------------------------------------------------|

            Guitar 2 [Clean] (1:20 - 1:48)
D#|--------------7/9------------------------12------------7/9-7----7-|
A#|-----------9------9-------------------12----12--9----9--------9---|
F#|------9h11----------11\9--9/11-11/13--(9)---------11--------------|
C#|-9/11-------------------------------------------------------------| x2
G#|------------------------------------------------------------------|
C#|------------------------------------------------------------------|



Interlude - Guitar 1 [Distortion] (1:48 - 2:15)
D#|------------------------|
A#|------------------------|
F#|-6-----6-----9-----8----|
C#|-x-x8--4-----6-----9----| x2
G#|-4-----4-x8--7-x8--7-x8-|
C#|-------4-----6-----9----|

            Guitar 2 [Distortion] (1:48 - 2:15)
D#|--------------7/9------------------------12------------7/9-7----7-|
A#|-----------9------9-------------------12----12--9----9--------9---|
F#|------9h11----------11\9--9/11-11/13--(9)---------11--------------|
C#|-9/11-------------------------------------------------------------| x2
G#|------------------------------------------------------------------|
C#|------------------------------------------------------------------|




Bridge - Guitar 1 [Distortion] (2:15 - 2:41)
D#|---------------------------------------------------------------------------9--|
A#|-12-12-12-12-12--12-12-12-12-12--12-12--12-12-12-12-12--12-12-12-12-12--12-9--|
F#|-9--9--9--9--9---9--9--9--9--9---9--9---9--9--9--9--9---9--9--9--9--9---9--9--|
C#|-11-11-11-11-11--11-11-11-11-11--11-11--11-11-11-11-11--11-11-11-11-11--11-11-|
G#|------------------------------------------------------------------------------|
C#|------------------------------------------------------------------------------|

D#|----------------------------------------0-0-0-0-0--0-0-0-0-0--0-0-|
A#|-9--9--9--9--9---9--9--9--9--9---9--9---9-9-9-9-9--9-9-9-9-9--9-9-|
F#|-9--9--9--9--9---9--9--9--9--9---9--9---8-8-8-8-8--8-8-8-8-8--8-8-|
C#|-11-11-11-11-11--11-11-11-11-11--11-11--9-9-9-9-9--9-9-9-9-9--9-9-| x2
G#|-11-11-11-11-11--11-11-11-11-11--11-11----------------------------|
C#|------------------------------------------------------------------|

        Guitar 2 [Distortion] (2:15 - 2:41)
D#|------------------------------------------------------|
A#|-5-5-5-5-5--5-5-5-5-5--5-5--5-5-5-5-5--5-5-5-5-5--5-5-|
F#|-6-6-6-6-6--6-6-6-6-6--6-6--6-6-6-6-6--6-6-6-6-6--6-6-|
C#|-6-6-6-6-6--6-6-6-6-6--6-6--6-6-6-6-6--6-6-6-6-6--6-6-|
G#|-4-4-4-4-4--4-4-4-4-4--4-4--4-4-4-4-4--4-4-4-4-4--4-4-|
C#|------------------------------------------------------|

D#|------------------------------------------------------|
A#|------------------------------------------------------|
F#|-9-9-9-9-9--9-9-9-9-9--9-9--8-8-8-8-8--8-8-8-8-8--8-8-|
C#|-6-6-6-6-6--6-6-6-6-6--6-6--9-9-9-9-9--9-9-9-9-9--9-9-| x2
G#|-7-7-7-7-7--7-7-7-7-7--7-7--7-7-7-7-7--7-7-7-7-7--7-7-|
C#|-6-6-6-6-6--6-6-6-6-6--6-6--9-9-9-9-9--9-9-9-9-9--9-9-|



Break - Guitar 1 [Distortion] (2:41 - 2:55)
Freely strum this chord, catching the grace notes occasionally
D#|(9)---|
A#|-12---|
F#|-9----|
C#|-11---|
G#|(0)---|
C#|------|

        Guitar 2 [Distortion] (2:41 - 2:55)
Strum to the beat of the bass drum
D#|-4----------|
A#|-5----9-----|
F#|-6----11----|
C#|-6----9-----|
G#|-4----11----|
C#|------------|



Outro - Guitar 1 [Distortion] (2:55 - End)
D#|-9///////--12///////--11///////-|
A#|-9///////--12///////--12///////-|
F#|(9)-------(13)-------(11)-------|
C#|--------------------------------|
G#|--------------------------------|
C#|--------------------------------|

        Guitar 2 [Distortion] (2:55 - End)
D#|(4)------------------|
A#|---------------------|
F#|-6------9------8-----|
C#|-x-x24--6------9-----|
G#|-4------7-x12--7-x12-|
C#|--------6------9-----|

************************************

| /   slide up
| \   slide down
| h   hammer-on
| p   pull-off
| ~   vibrato
| +   harmonic
| x   Mute note
| /// Tremolo Picking
| b   Bend
| pb  Pre-bend
| br  Bend release
| pbr Pre-bend release
| brb Bend release bend

************************************
Tap to rate this tab
# A B C D E F G H I J K L M N O P Q R S T U V W X Y Z