Song name
# A B C D E F G H I J K L M N O P Q R S T U V W X Y Z

Misc Unsigned Bands - Chronic Rhythm - 7 Minute Itch tab

-------------------------------------------------------------------------------
                             7 MINUTE ITCH - Chronic Rhythm
-------------------------------------------------------------------------------
Tabbed by: agenta128
E-mail: acefarkas@gmai.com

Tuning: Eb Ab Db Gb Bb eb

Intro:
e|--2-2-3222-0-0-2-xx-2-2-3222-0-0-2-----------------------------------------|
B|--3-3-3333-3-3-3-xx-3-3-3333-3-3-3-----------------------------------------|
G|---------------------------------------------------------------------------|
D|---------------------------------------------------------------------------|
A|---------------------------------------------------------------------------|
E|---------------------------------------------------------------------------|

Verse:
e|---------------------------------------------------------------------------|
B|---------------------------------------------------------------------------|
G|-----------5-55-555-7-77-777-7-77-777--------------------------------------|
D|--5-55-555-5-55-555-7-77-777-7-77-777--------------------------------------|
A|--5-55-555-3-33-333-5-55-555-5-55-555--------------------------------------|
E|--3-33-333-----------------------------------------------------------------|

Chorus:
e|---------------------------------------------------------------------------|
B|---------------------------------------------------------------------------|
G|--5-55-555-7-77-777-5-55-555-7-77-777-5-55-555-7-77-777--------------------|
D|--5-55-555-7-77-777-5-55-555-7-77-777-5-55-555-7-77-777-5-55-555-5-55-55(5)|
A|--3-33-333-5-55-555-3-33-333-5-55-555-3-33-333-5-55-555-5-55-555-5-55-55(5)|
E|--------------------------------------------------------3-33-333-3-33-33(5)|
(NOTE: Only play parenthesized notes directly before bridge)

Link:
e|--2-2-3222-0-0-2-----------------------------------------------------------|
B|--3-3-3333-3-3-3-----------------------------------------------------------|
G|---------------------------------------------------------------------------|
D|---------------------------------------------------------------------------|
A|---------------------------------------------------------------------------|
E|---------------------------------------------------------------------------|

Bridge:
e|---------------------------------------------------------------------------|
B|---------------------------------------------------------------------------|
G|---------------------------------------------------------------------------|
D|--5-55-555-5-55-555-5-55-555-5-55-555-5-55-555-5-55-555-5555555555555555---|
A|--5-55-555-5-55-555-5-55-555-5-55-555-5-55-555-5-55-555-5555555555555555---|
E|--3-33-333-3-33-333-3-33-333-3-33-333-3-33-333-3-33-333-3333333333333333---|

Lyrics:

(Intro)

(Verse)
Thereís a lot of people in this world I donít understand
But I donít want to fight with them anymore
Itís like that town will turn you into such a jerk
But then thereís someone there I cant get off my mind

(Chorus)
Iíve got 7 minute itch
Iíve got 7 minute itch
Iíve got 7 minute itch on my mind

(Link)

(Verse)
Then thereís the girl who lives so far away
It almost hurts knowing that I canít see her
I wish I still lived right across the street
So I could see her smiling brightly everyday

(Chorus x2)
Iíve got 7 minute itch
Iíve got 7 minute itch
Iíve got 7 minute itch on my mind

Iíve got 7 minute itch
Iíve got 7 minute itch
Iíve got 7 minute itch on my mind

(Bridge)
(LInk)

(Verse)
Slip on my headphones and slip into my own world
I donít want to hear it anymore
Hot, hot, hot outside
I wanna slip into my place to hide

(Chorus x3)
Iíve got 7 minute itch
Iíve got 7 minute itch
Iíve got 7 minute itch on my mind

Iíve got 7 minute itch
Iíve got 7 minute itch
Iíve got 7 minute itch on my mind

Iíve got 7 minute itch
Iíve got 7 minute itch
Iíve got 7 minute itch on my mind!
Tap to rate this tab
# A B C D E F G H I J K L M N O P Q R S T U V W X Y Z