Song name
# A B C D E F G H I J K L M N O P Q R S T U V W X Y Z

Misc Unsigned Bands - Ooee Ooee - Zoheb Hassan tab

Title: Ooee Ooee
Singer: Zoheb Hassan
Music Director: Biddu
Album: Star

Tabbed by Shakti
Email: shakti_102@yahoo.co.uk


Intro solo:

   F          Dm       Gm          C
e|-----------------------------------------------------|
B|---------------------------8-6-----------------------|
G|--------10--------7------7-----7-9--9-9--7-9-9-10-12-|
D|---7-10---------7----5-8-----------------------------|
A|-8----------5-8--------------------------------------|
E|-----------------------------------------------------|

Dm        A#          C
Ooee ooee chori chori baatein ho

Dm        A#        C
Ooee ooee aisi mulaaqatein ho

Dm        A#          C
Ooee ooee sapno ki baaratein ho

A#
Duniya waale to yunhi hai

C           C   Dm C
Jalne waale hum tumse


F
Ek do kehne bhi do

Dm
Teen chaar ho gaya pyar

A#                    C
Main to chala jaise bahaar


Repeat this solo after every "ooee ooee"

e|----------|
B|----------|
G|----------|
D|----------|
A|-------5--|
E|-8-5-9----|

The same chords pattern goes throughout the whole song
Tap to rate this tab
# A B C D E F G H I J K L M N O P Q R S T U V W X Y Z