Song name
# A B C D E F G H I J K L M N O P Q R S T U V W X Y Z

Misc Unsigned Bands - Brigitte Naggar - New Bed chords

Highlighted       Show chord diagrams
-------------------------------------------------------------------------------
                             New Bed - Brigitte Naggar
-------------------------------------------------------------------------------
Tabbed by: Ralius
E-mail: Brayds97@gmail.com

Tuning: Standard



Capo 2 (Recording http://brigitteacoustic.bandcamp.com/)
Capo 1 (Video http://www.youtube.com/watch?v=DvVkl45xvmQ)

C9:    x32030
C:     x32010
Fmaj7: x03210
Am:    x02210
G:     320003
F:     133211

Fill 1:
e|-----------------------|
B|-----------------------|
G|-----------------------|
D|-----------------------|
A|----------0---2---3----|
E|--1---3----------------|


Intro:
e|--------------------------------------------------------------------------|
B|----3---3p1----0---0----1---1---1---1----1---1----0---0----1---1---1---1--|
G|----0---0------0---0----2---2---2---2----2---2----0---0----2---2---2---2--|
D|----------------------------------2------2---2----0---0----3---3---3---3--|
A|--3---3------3---3----0---0---0--------0---0------------------------------|
E|------------------------------------------------3---3----1---1---1---1----|


C9  C  Fmaj7 Am  G  F

C9           C             Fmaj7                               Play like intro
Clean sheets and a shutter I can't close                  
Am               G                F                      
Where the lights excitement is enveloping                 
C9       C            Fmaj7                              
New days is a journey and a new breath           ??            
Am                  G         F                                
Goodbye old friends and hello strangers                        

*Fill 1*

F
There it is still rainin'                                      Play fingerstyle

There it is still rainin'
              C      G
Here it's dry
F
There it is still rainin'

There it is still rainin'
              C      G
Here it's dry


C9          C            F
I feel that we will get along just fine                        Start strumming
C9            C              F                                (Sort of)
If everything goes the way I have in mind
C9          C            F
I feel that we will get along this time
Am        G                F
Their situation will work out just fine

*Fill 1*


C9    C                  Am                                    Like first verse/intro
Shadows that I don't even recognise 
      Am           G               F
Can't guide myself without turning the lights on
C9      C           Am
Corners I happen to run into
      Am             G           F
But a steady beatin' in my heart, it keeps me ready

*Fill 1*


F
There it is still rainin'                                      Fingerstyle

There it is still rainin'
              C      G
Here it's dry
F
There it is still rainin'

There it is still rainin'
              C      G
Here it's dry


C9          C            F                                     Full strumming
I feel that we will get along just fine
C9            C              F
If everything goes the way I have in mind
C9          C            F
I feel that we will get along this time
Am        G                F
Their situation will work out just fine
   Am         G              F
If everything goes the way I have in mind
         Am           G           F (tacet)
Ooh, and I feel that we will get along just fine
Tap to rate this tab
# A B C D E F G H I J K L M N O P Q R S T U V W X Y Z