Song name
# A B C D E F G H I J K L M N O P Q R S T U V W X Y Z

Misc Unsigned Bands - Misc Praise - I Saw The Light tab

i know for sure this tab is 100% correct

Verse

|--------------------------------------------------------------------------|
|--------------------------------------------------------------------------|
|------------4--------------------------------------------4----------------|
|----------5---------5-----7-5---5-5----7-5--------------5------------5----|
|-(5)-5-5-7----5-5-7-----------7------------7-5-----5-5-7-----5-5-5-7------|
|--------------------------------------------------------------------------|


|-----------------------|
|--5--------------------|
|-7--7-4---4-4----------|
|-------5------7-5------|
|-----------------------|
|-----------------------|


Chorus

|--------------------------------------------------------------------------|
|--------------------------------------------------------------------------|
|-4-4-4--------4-4-4-----------------------------------------4-4-4---------|
|----8--7-5-------8-7-5-----7-5-5-5---7-5-5------------5-5-5----8-7-5------|
|------------------------------7---------7-7-5----5-5-7--------------------|
|--------------------------------------------------------------------------|

|-------------------|
|--5----------------|
|-7--7-4----4-4-----|
|-------5-------7-5-|
|-------------------|
|-------------------|
Tap to rate this tab
 
# A B C D E F G H I J K L M N O P Q R S T U V W X Y Z