Song name
# A B C D E F G H I J K L M N O P Q R S T U V W X Y Z

Misc Unsigned Bands - Denis Shaforostov - Fix You tab

Denis plays this song in drop D# and this is based on his version.
This song covers this 4 chord structure mostly besides chorus.
The video is here http://www.youtube.com/watch?v=FXWjW48Y2JA.
This my first tab.

0:00-1:19 Intro and first verse

D#|------0------0------0-------0-------|-
A#|------0------0------0-------0-------|-
F#|------1------4------9-------8-------|-
C#|------2------6------11------9-------|-
G#|------2------6------11------9-------|-
D#|------0------4------9-------7-------|-

1:19-1:40 Chorus

D#|------0------0------|-
A#|------0------0------|-
F#|------6------8------|-
C#|------7------9------|-
G#|------7------9------|-
D#|------5------7------|-

1:40-2:23 Second verse

D#|------0------0------0-------0-------|-
A#|------0------0------0-------0-------|-
F#|------1------4------9-------8-------|-
C#|------2------6------11------9-------|-
G#|------2------6------11------9-------|-
D#|------0------4------9-------7-------|-

2:23-2:44 Second chorus

D#|------0------0------|-
A#|------0------0------|-
F#|------6------8------|-
C#|------7------9------|-
G#|------7------9------|-
D#|------5------7------|-

2:44-2:58 Bridge

D#|------0------0------0--------0-------|-
A#|------0------0------0--------0-------|-
F#|------6------8------13-------9-------|-
C#|------7------9------14-------11------|-
G#|------7------9------14-------11------|-
D#|------5------7------12-------9-------|-

2:58-3:21 Third chorus         3:22 Final chord

D#|------0------0------|       |------0------|
A#|------0------0------|       |------0------|
F#|------6------8------|       |------1------|
C#|------7------9------|       |------2------|
G#|------7------9------|       |------2------|
D#|------5------7------|       |------0------|
Tap to rate this tab
# A B C D E F G H I J K L M N O P Q R S T U V W X Y Z