Song name
# A B C D E F G H I J K L M N O P Q R S T U V W X Y Z

Misc Unsigned Bands - 7lions - Born 2 Run tab

INTRO/VERSE

Electric 1+2

E|--------------|
B|--------------|
G|---6-9--------|
D|-7-6-9-7-9-11-|
A|-7-4-7-7-9-11-|
E|-5-----5-7-9--|

PRE-CHORUS

Electric 1

E|--------------------------------------------|
B|------12-12-12--9-9-9-9---------------------|
G|-9-x8--------------------7-x8--8-8-8--9-9-9-|
D|--------------------------------------------|
A|--------------------------------------------|
E|--------------------------------------------|

Electric 2

E|--------------|
B|--------------|
G|---6-9--------|
D|-7-6-9-7-9-11-|
A|-7-4-7-7-9-11-|
E|-5-----5-7-9--|

CHORUS (part 1)

Electric 1

E|--------------------------------------------|
B|------12-12-12--9-9-9-9---------------------|
G|-9-x8--------------------7-x8--8-8-8--9-9-9-|
D|--------------------------------------------|
A|--------------------------------------------|
E|--------------------------------------------|

Electric 2

E|--------------|
B|--------------|
G|---6-9--------|
D|-7-6-9-7-9-11-|
A|-7-4-7-7-9-11-|
E|-5-----5-7-9--|

CHORUS (part 2)

Electric 1

E|--------------------------------------------|
B|-------7-7-7--9-9-9-9-9---------------------|
G|-9-x8--------------------9-x8--8-8-8--9-9-9-|
D|--------------------------------------------|
A|--------------------------------------------|
E|--------------------------------------------|

Electric 2

E|--------------|
B|--------------|
G|---6-9--------|
D|-7-6-9-7-9-11-|
A|-7-4-7-7-9-11-|
E|-5-----5-7-9--|

VERSE (same as above slightly diff, listen to song)

PRE-CHORUS

CHORUS

BRIDGE 

Electric 1+2
(muted slightly)
E|--------------|
B|--------------|
G|---6-9--------|
D|-7-6-9-7-9-11-|
A|-7-4-7-7-9-11-|
E|-5-----5-7-9--|

CHORUS
Tap to rate this tab
 
# A B C D E F G H I J K L M N O P Q R S T U V W X Y Z