Song name
# A B C D E F G H I J K L M N O P Q R S T U V W X Y Z

Misc Unsigned Bands - Lost In Society - Not My Day tab

E1-STANDARD
E2-DROP D

INTRO/VERSE

Electric 1

E|---------------|
B|---------------|
G|-6-7-----------|
D|-6-7-7-x2-xxxx-|
A|-4-5-7----xxxx-|
E|-----5----xxxx-|

CHORUS

Electric 1

E|----------------------|
B|----------------------|
G|---7------------------|
D|-4-7-7----4-7-5-4-2-7-|
A|-4-5-7-x2-4-7-5-4-2-7-|
E|-2---5----2-5-3-2-0-5-|

Electric 2

E|----------------------------------|
B|----------------------------------|
G|----------------------------------|
D|-4-0-7----4-7-5-4-2-7-6-7-6-7-6-7-|
A|-4-0-7-x2-4-7-5-4-2-7-6-7-6-7-6-7-|
D|-4-0-7----4-7-5-4-2-7-6-7-6-7-6-7-|

VERSE (part 1)

Bass

VERSE (part 2)

Electric 1

E|---------------|
B|---------------|
G|-6-7-----------|
D|-6-7-7-x2-xxxx-|
A|-4-5-7----xxxx-|
E|-----5----xxxx-|

CHORUS

SOLO
(prob messed up)

Electric 1 

E|----------------------------------------------------------|
B|-7b-------------7h9---------------------------------------|
G|-8b-x3--------------7h9--------7b/8-8-7-------------------|
D|-9b----7-7h10-7---------9h10-9----------10-9-10-9-7-------|
A|----------------------------------------------------10-12-|
E|----------------------------------------------------------|

Electric 2

E|---------|
B|---------|
G|---------|
D|-11-12-7-|
A|-11-12-7-|
D|-11-12-7-|

PRE-CHORUS

Electric 2
(palm mute)
E|---------|
B|---------|
D|-11-12-7-|
A|-11-12-7-|
D|-11-12-7-|

CHORUS
Tap to rate this tab
# A B C D E F G H I J K L M N O P Q R S T U V W X Y Z