Song name
# A B C D E F G H I J K L M N O P Q R S T U V W X Y Z

Misc Unsigned Bands - Lost In Society - My Door tab

INTRO (part 1)

Electric 2

E|--------------------------|
B|--------------------------|
G|------8-------------------|
D|-5-xx-8-x-8-8-8-8----10-8-|
A|-5-xx-6-x-8-8-8-8-x3-10-8-|
D|-5-xx---x-8-8-8-8----10-8-|

INTRO (part 2)

Electric 1

E|----------------|
B|----------------|
G|-12-8-15----5-3-|
D|-12-8-15-x3-5-3-|
A|-10-6-13----3-1-|
D|----------------|

Electric 2

E|--------------------------|
B|--------------------------|
G|------8-------------------|
D|-5-xx-8-x-8-8-8-8----10-8-|
A|-5-xx-6-x-8-8-8-8-x3-10-8-|
D|-5-xx---x-8-8-8-8----10-8-|

VERSE

Electric 1

E|---------------|
B|---------------|
G|-12-8-15----5--|
D|-12-8-15-x3-5--|
A|-10-6-13----3--|
D|---------------|

Electric 2

E|------------------------|
B|------------------------|
G|------8-----------------|
D|-5-xx-8-x-8-8-8-8----10-|
A|-5-xx-6-x-8-8-8-8-x3-10-|
D|-5-xx---x-8-8-8-8----10-|

CHORUS

Electric 1

E|----------------|
B|----------------|
G|-12-8-15----5-3-|
D|-12-8-15-x3-5-3-|
A|-10-6-13----3-1-|
D|----------------|

Electric 2

E|--------------------------|
B|--------------------------|
G|------8-------------------|
D|-5-xx-8-x-8-8-8-8----10-8-|
A|-5-xx-6-x-8-8-8-8-x3-10-8-|
D|-5-xx---x-8-8-8-8----10-8-|

VERSE (part 1)

Electric 1

E|---------|
B|---------|
G|----9----|
D|-10---10-|
A|---------|
D|---------|

VERSE (part 2)

VERSE

Electric 1

E|---------------|
B|---------------|
G|-12-8-15----5--|
D|-12-8-15-x3-5--|
A|-10-6-13----3--|
D|---------------|

Electric 2

E|-------------------------|
B|-------------------------|
G|------8------------------|
D|-5-xx-8-x-8-8-8-8----10--|
A|-5-xx-6-x-8-8-8-8-x3-10--|
D|-5-xx---x-8-8-8-8----10--|

CHORUS

BRIDGE

Electric 1

E|------------------|
B|------------------|
G|-5-8-----------10-|
D|-5-8-last-time-10-|
A|-3-6-----------8--|
D|------------------|

Electric 2

E|--------------------|
B|--------------------|
G|--------------------|
D|-10-13-last-time-15-|
A|-10-13-----------15-|
D|-10-13-----------15-|

PRE-CHORUS

Electric 1

E|----------------|
B|----------------|
G|-12-8-15----5-3-|
D|-12-8-15-x3-5-3-|
A|-10-6-13----3-1-|
D|----------------|

CHORUS
Tap to rate this tab
# A B C D E F G H I J K L M N O P Q R S T U V W X Y Z