Song name
# A B C D E F G H I J K L M N O P Q R S T U V W X Y Z

Misc Unsigned Bands - 7lions - Broken Wings tab

INTRO (part 1)

Acoustic

E|---------------------------<12>-|
B|--------<12>----------<12>------|
G|-9---<12>----5-4-<12>-----------|
D|-9-9---------5-4----------------|
A|-7-9---------3-2----------------|
E|---7----------------------------|

INTRO (part 2)

Acoustic

E|---------------------------<12>-|
B|--------<12>----------<12>------|
G|-9---<12>----5-4-<12>-----------|
D|-9-9---------5-4----------------|
A|-7-9---------3-2----------------|
E|---7----------------------------|

Electric 1

E|----11-12-11-|
B|-17-12-13-12-|
G|-16-11-12-11-|
D|-------------|
A|-------------|
E|-------------|

VERSE (part 1)

Electric 2

E|----------------------------------------|
B|----------------------------------------|
G|----------------------------------------|
D|----------------------------------------|
A|-7-9-10-7-7-9-10-7-7----6-7-9-6-6-6-7-9-|
D|----------------------------------------|

VERSE (part 2)

Electric 1

E|-----------------------------------------------------------|
B|-12h13p12---12--12--12-------------------------------------|
G|----------12--12--12--12-----------------------------------|
D|-------------------------14--14--14--14---17--17--17--17---|
A|---------------------------16--16--16--16---17--17--17--17-|
D|-----------------------------------------------------------|

------------------|
------------------|
------------------|
-16--16--16--16---|
---16--16--16--16-|
------------------|

Electric 2

E|----------------------------------------|
B|----------------------------------------|
G|----------------------------------------|
D|----------------------------------------|
A|-7-9-10-7-7-9-10-7-7----6-7-9-6-6-6-7-9-|
D|----------------------------------------|

VERSE (part 3)

Electric 1

E|--------------------------------------------------------|
B|--------------------------------------------------------|
G|--------------------------------------------------------|
D|--------------------------------------------------------|
A|-15-15-12-15-15-15-12-15-12--14-14-10-14-14-14-10-14-10-|
E|--------------------------------------------------------|

------------------------------------------|
------------------------------------------|
------------------------------------------|
------------------------------------------|
-12-9-6---6-9-12-9-12-9-10-9-7-9-7-9-10-9-|
--------7---------------------------------|

PRE-CHORUS

Electric 1+2

E|--------------------------------|
B|--------------------------------|
G|-9-11-12-14--19\17\16-----------|
D|-x-x--x--x---x--x--x-----9----9-|
A|-7-9--10-12--17\15\14----9----9-|
E|-------------------------7----7-|

CHORUS

Electric 1+2

E|---------|
B|---------|
G|-----5-4-|
D|-7-5-5-4-|
A|-7-5-3-2-|
E|-5-3-----|

VERSE (part 1-3)

CHORUS

SOLO

Electric 1

E|----------------------------------------------------------------|
B|------------------12b-10----------------------------------------|
G|-9--9h11h12b-9-12--------12-11----------------------------------|
D|-------------------------------12-----12--12---12/14--14r12h14--|
A|----------------------------------12----12--12------------------|
E|----------------------------------------------------------------|
                                         * * * *

-----------16b-15-14------------------------|
--------15-----------15---------------------|
-----16-----------------12-11-9-------------|
--17----------------------------10-9--------|
-------------------------------------10-9-7-|
--------------------------------------------|

POST (part 1)

Acoustic

E|---|
B|---|
G|-9-|
D|-9-|
A|-7-|
E|---|

POST (part 2)

Acoustic + Electric 2

E|-----|
B|-----|
G|-5-4-|
D|-5-4-|
A|-3-2-|
E|-----|

PRE-CHORUS

CHORUS
Tap to rate this tab
 
# A B C D E F G H I J K L M N O P Q R S T U V W X Y Z