Song name
# A B C D E F G H I J K L M N O P Q R S T U V W X Y Z

Misc Unsigned Bands - Only Embers Now - Immature tab

"Only Embers Now" 
(Only The Intro)
Written By Immature

|---------2------|---------2------|---------2------|---------2------|
|---3---3---3---3|---3---3---3---3|---3---3---3---3|---3---3---3---3|
|-4---4-------4--|-2---2-------2--|-0---0-------0--|-2---2-------2--|
|----------------|----------------|----------------|----------------|
|----------------|----------------|----------------|----------------|
|----------------|----------------|----------------|----------------|

|---------2------|---------2------|---------2------|---------2-----2|
|---3---3---3---3|---3---3---3---3|---3---3---3---3|---3---3---3---3|
|-4---4-------4--|-2---2-------2--|-0---0-------0--|-2---2-------2-2|
|----------------|----------------|----------------|---------------0|
|----------------|----------------|----------------|---------------0|
|----------------|----------------|----------------|---------------0|


|2-------2-------|0-------0-------|3-------3-------|0-------0-------|
|3-3---3---3---3-|2-2---2---2---2-|0-0---0---0---0-|2-2---2---2---2-|
|4---4-------4---|2---2-------2---|0---0-------0---|2---2-------2---|
|4---------------|2---------------|0---------------|2---------------|
|2---------------|0---------------|2---------------|0---------------|
|2---------------|0---------------|3---------------|0---------------|


|2-------2-------|0-------0-------|3-------3-------|2-------2-----2-|
|3-3---3---3---3-|2-2---2---2---2-|0-0---0---0---0-|3-3---3---3---3-|
|4---4-------4---|2---2-------2---|0---0-------0---|2---2-------2-2-|
|4---------------|2---------------|0---------------|2-------------0-|
|2---------------|0---------------|2---------------|0-------------0-|
|2---------------|0---------------|3---------------|0-------------0-|
Tap to rate this tab
 
# A B C D E F G H I J K L M N O P Q R S T U V W X Y Z