Song name
# A B C D E F G H I J K L M N O P Q R S T U V W X Y Z

Misc Unsigned Bands - Our People Versus Yours - Harlot tab

Harlot intro by Our People Versus Yours. (Check them out already!)

D|--------------------------------------------------------------------------|
A|--------------------------------------------------------------------------|
F|--------------------------------------------------------------------------|
C|----12----12----12----15----14----14-----12----12----12----15----14----14-|
G|-13----13----13----13----13----13-----12----12----12----12----12----12----|
C|--------------------------------------------------------------------------|

D|--------------------------------------------------------------------------|
A|--------------------------------------------------------------------------|
F|--------------------------------------------------------------------------|
C|----12----12----12----15----14----14----12----12----12----15----17----17--|
G|-10----10----10----10----10----10----12----12----12----12----12----12-----|
C|--------------------------------------------------------------------------|
Tap to rate this tab
# A B C D E F G H I J K L M N O P Q R S T U V W X Y Z