Song name
# A B C D E F G H I J K L M N O P Q R S T U V W X Y Z

Misc Unsigned Bands - Lost In Society - Wrong Direction tab

INTRO/VERSE

Electric 1+2

E|--------------------------------------------|
B|--------------------------------------------|
G|--------------------------------------------|
D|-1-xxxx-9-4--1-xxxx-9-4-6--1-xxxx-9-4-8-9-8-|
A|-1-xxxx-9-4--1-xxxx-9-4-6--1-xxxx-9-4-8-9-8-|
D|-1-xxxx-9-4--1-xxxx-9-4-6--1-xxxx-9-4-8-9-8-|

CHORUS

Electric 1

E|-------------------------|
B|-------------------------|
G|-4-6-8----4-6-8-11-4-6-8-|
D|-4-6-8-x2-4-6-8-11-4-6-8-|
A|-2-4-6----2-4-6-9--2-4-6-|
D|-------------------------|

Electric 2

E|----------------------------|
B|----------------------------|
G|----------------------------|
D|-9-11-1----9-11-1-4--9-11-1-|
A|-9-11-1-x2-9-11-1-4--9-11-1-|
D|-9-11-1----9-11-1-4--9-11-1-|

INTRO/VERSE

CHORUS

SOLO

Electric 1

E|-----------------------------------------------|
B|-------------7\\\-------7-10b/11b--9p7h9p7-----|
G|-9--86868868------88686--------------------8-8-|
D|-----------------------------------------------|
A|-----------------------------------------------|
D|-----------------------------------------------|

-------------------------------------------------------------------------|
-----------7-9-11b-x6--11-x6-1616-14---------------1616-14---------------|
-986868868-------------------1515----15-1513151615-1515----15-1513151615-|
-------------------------------------13--------------------13------------|
-------------------------------------------------------------------------|
-------------------------------------------------------------------------|

--------------------------------------------------|
-1616-14---------------------------------------16-|
-1515----15-1513151315-1616161-16-151515161516----|
---------13---------------------------------------|
--------------------------------------------------|
--------------------------------------------------|

Electric 2

E|-----------------------------|
B|-----------------------------|
G|-----------------------------|
D|-1-9-4--1-9-4-6--1-9-4-8-9-8-|
A|-1-9-4--1-9-4-6--1-9-4-8-9-8-|
D|-1-9-4--1-9-4-6--1-9-4-8-9-8-|

POST SOLO (part 1)

Electric 1

E|-------|
B|-16-16-|
G|-------|
D|-------|
A|-------|
D|-------|

Electric 2

E|-----|
B|-----|
G|-----|
D|-4-1-|
A|-4-1-|
D|-4-1-|

POST SOLO (part 2)

Electric 1+2

E|-----|
B|-----|
G|-----|
D|-4-1-|
A|-4-1-|
D|-4-1-|

CHORUS

OUTRO

Electric 1+2

E|-----------------------------|
B|-----------------------------|
G|-----------------------------|
D|-1-9-4--1-9-4-6--1-9-4-8-9-8-|
A|-1-9-4--1-9-4-6--1-9-4-8-9-8-|
D|-1-9-4--1-9-4-6--1-9-4-8-9-8-|
Tap to rate this tab
 
# A B C D E F G H I J K L M N O P Q R S T U V W X Y Z