Song name
# A B C D E F G H I J K L M N O P Q R S T U V W X Y Z

Misc Unsigned Bands - Early June - Dear Juliet tab

'Dear Juliet' By Early June
Tabbed By: Ryan Frisone

(/) Slide Up  (\) Slide Down  (h) Hammer On  (p) Pull Off  (b) Bend (r) Release (v) Vibrato

Verses
"Do you know how..."
"I sit here waiting..."
E|---------|
B|---------|
G|-6-2-1-4-| (x7)
D|-6-2-2-4-|
A|-4---2-2-|
E|---------|

Pre-Chorus Verse 1
"I'm motionless..."
E|-----------------------------------------------------------------|
B|-----------------------------------------------------------------|
G|---------------------------------------------------------------2-|
D|-------1-1-1-2-2-2-------1-1-1-2-2-2-------1-1-1-2-2-2-2-2-2-2-2-| (x2)
A|-0-0-0-------------2-2-2-------------4-4-4-----------------------|
E|-----------------------------------------------------------------|

Chorus
"Dear Juliet..."
E|---------|
B|---------|
G|-1-2-6-4-|
D|-2-2-6-4-|
A|-2---4-2-|
E|---------|

Chorus Pt.2
"Dear Juliet, can we make it out alive..."
E|-----------|
B|-----------|
G|-1-2-6-4-2-|
D|-2-2-6-4-2-|
A|-2---4-2---|
E|-----------|
Tap to rate this tab
# A B C D E F G H I J K L M N O P Q R S T U V W X Y Z