Song name
# A B C D E F G H I J K L M N O P Q R S T U V W X Y Z

Misc Unsigned Bands - Upon Despair - End Of Days tab

End of Days by Upon Despair
Guitar by Joshua Isaac Everitt

*Solo is Improvised*

=Chorus=
E|---------------------------------------------------------|
B|---------------------------------------------------------|
G|--6---7---9---7---9---11---13---11---11---11---11---11---|
D|--0---0---0---0---0---0----0----0----9----0----9----0----|
A|--4---5---7---5---7---9----11---9----9----9----9----9----|
D|--0---0---0---0---0---0----0----0----9----0----9----0----|
   (X8)(X4)(X4)(X8)(X4)(X4) (X16)(X16)(X16)(X16)(X16)(X16)

=Verse=
E|--------------------------|
B|--------------------------|
G|--------------------------|
D|--5----9----12----7----5--| X2
A|--5----9----12----7----5--|
D|--5----9----12----7----5--|
   (X12)(X4) (X16)(X16)(X16)


=Verse=(cont.)
E|-------------------------|
B|-------------------------|
G|-------------------------|
D|--5----9----12----7------|
A|--5----9----12----7------|
D|--5----9----12----7------|
   (X12)(X4) (X16)(X32)
Tap to rate this tab
# A B C D E F G H I J K L M N O P Q R S T U V W X Y Z