Song name
# A B C D E F G H I J K L M N O P Q R S T U V W X Y Z

Misc Unsigned Bands - Writing Off Tomorrow - Torture Games tab

Torture Games by Writing Off Tomorrow
from the Last Moments EP


Tuning Db Ab Db Gb

h = hammer on
S = slap
p = pop
\ = slide down
/ = slide up


Bell Intro Piece (No Bass)


 Gb -------|-------|-------|-------|-------|-------|-------|-------|
 Db -------|-------|-------|-------|-------|-------|-------|-------|
 Ab -------|-------|-------|-------|-------|-------|-------|---12\-|
 Db 00--000|-------|00--000|-------|00--000|-------|00--000|-------|
    ss  sss         ss  sss         ss  sss         ss  sss


 Gb -----------|-----------|-----------|-----------|-----------|-----------|-----------|
 Db ------7-5-3|------7-5-3|--8---8-7-5|--8---8-7-5|--5---5-3-2|--7---7-5-3|--7---7-5--|
 Ab 5-3-5------|5-3-5------|-----------|-----------|-----------|-----------|----------7|
 Db -----------|-----------|8---8------|8---8------|5---5------|7---7------|7---7------|

 Gb -----------|-----------|-----------|-----------|-----------|-----------|-----------|
 Db ------7-5-3|------7-5-3|--8---8-7-5|--8---8-7-5|--5---5-3-2|-----------|-----------|
 Ab 5-3-5------|5-3-5------|-----------|-----------|-----------|-----------|-----------|
 Db -----------|-----------|8---8------|8---8------|5---5------|2-2-2-2-2-2|7---5---3--|

Verse 1

 Gb -----------|---------------|
 Db -----------|-------3----2--|
 Ab -----------|---------------| x8
 Db 0-0-0-0-3-0|0-0-00---00---0|
    s s s s s s s s ss p ss p s

Chorus

 Gb ----------|-----------------|-------|----------|-----------------|---------|---------|--------|
 Db ----------|-----------------|-------|----------|-----------------|---------|---------|--------|
 Ab 1---/5----|---/8---/12h13-12|-------|1---/5----|---/8---/12h13-12|---------|---------|--------|
 Db ----------|-----------------|0~-----|----------|-----------------|0-0--0-0-|0-0--0-0-|0---0---|


 Gb ----------|9---9/10--7|10-9-7--------------|-----------|-------|-------|
 Db ----/10-7-|--9--------|-------10-9-7------7|9--7-------|-------|-------|
 Ab 7-8-------|-----------|--------------10-8--|-----10-8-7|-------|-------|
 Db ----------|-----------|--------------------|-----------|00--000|00--000|
                                                            ss  sss ss  sss
Verse 2

 Gb -----------|---------------|
 Db -----------|-------3----2--|
 Ab -----------|---------------| x8
 Db 0-0-0-0-3-0|0-0-00---00---0|
    s s s s s s s s ss p ss p s

Chorus

 Gb ----------|-----------------|-------|----------|-----------------|---------|---------|--------|
 Db ----------|-----------------|-------|----------|-----------------|---------|---------|--------|
 Ab 1---/5----|---/8---/12h13-12|-------|1---/5----|---/8---/12h13-12|---------|---------|--------|
 Db ----------|-----------------|0~-----|----------|-----------------|0-0--0-0-|0-0--0-0-|0---0---|

 Gb ----------|9---9/10--7|10-9-7--------------|-----------|-------|-------|-------|
 Db ----/10-7-|--9--------|-------10-9-7------7|9--7-------|-------|-------|-------|
 Ab 7-8-------|-----------|--------------10-8--|-----10-8-7|-------|-------|---12\-|
 Db ----------|-----------|--------------------|-----------|00--000|00--000|-------|
                                                            ss  sss ss  sss
Guitar Solo

 Gb -----------|-----------|-----------|-----------|-----------|-----------|-----------|
 Db ------7-5-3|------7-5-3|--8---8-7-5|--8---8-7-5|--5---5-3-2|--7---7-5-3|--7---7-5--|
 Ab 5-3-5------|5-3-5------|-----------|-----------|-----------|-----------|----------7|
 Db -----------|-----------|8---8------|8---8------|5---5------|7---7------|7---7------|

 Gb -----------|-----------|-----------|-----------|-----------|-----------|-----------|
 Db ------7-5-3|------7-5-3|--8---8-7-5|--8---8-7-5|--5---5-3-2|-----------|-----------|
 Ab 5-3-5------|5-3-5------|-----------|-----------|-----------|-----------|-----------|
 Db -----------|-----------|8---8------|8---8------|5---5------|2-2-2-2-2-2|7---5--3--0|

 Gb -------|-------|-------|-------|-------|-------|-------|-------|-------|
 Db -------|-------|-------|-------|-------|-------|-------|-------|-------|
 Ab -------|-------|-------|-------|-------|-------|-------|-------|-------|
 Db 00--000|00--000|-------|-------|00--000|00--000|00--000|00--000|-------|
    ss  sss ss  sss                 ss  sss ss  sss ss  sss ss  sss
Chorus 3

 Gb ----------|9---9/10--7|10-9-7--------------|-----------|-------|-------|
 Db ----/10-7-|--9--------|-------10-9-7------7|9--7-------|-------|-------|
 Ab 7-8-------|-----------|--------------10-8--|-----10-8-7|-------|-------|
 Db ----------|-----------|--------------------|-----------|00--000|00--000|
                                                            ss  sss ss  sss
 Gb -------|-------|-------|---------|
 Db -------|-------|-------|---------|
 Ab -------|-------|-------|---------|
 Db 0-0-0-0|0-0-0-0|0-0-0-0|0-000000-|
    s s s s s s s s s s s s s ssssss
Tap to rate this tab
# A B C D E F G H I J K L M N O P Q R S T U V W X Y Z