Song name
# A B C D E F G H I J K L M N O P Q R S T U V W X Y Z

Misc Unsigned Bands - Vanilla Gloom - Wolves tab

-------------------------------------------------------------------------------
                              Wolves - Vanilla Gloom
-------------------------------------------------------------------------------
                          www.vanillagloom.bandcamp.com
                                     
                                  from 'Vexed'

Tabbed by: S D O'Neill
E-mail: N/A

Tuning: Standard


Intro Riff

e|-------------------------------------------------------------------------------|
B|--~12~--12--~12~--12--~12~--12--12--13--15--~12~--12--~12~--12--~12~--12--b12--|
G|-------------------------------------------------------------------------------|
D|-------------------------------------------------------------------------------|
A|-------------------------------------------------------------------------------|
E|-------------------------------------------------------------------------------|

    There's a pain in my side                    It stays with me all the time

e|-------------------------------------------------------------------------------|
B|--~12~--12--~12~--12--~12~--12--12--13--15--~12~--12--~12~--12---12/-----------|
G|-------------------------------------------------------------------------------|
D|-------------------------------------------------------------------------------|
A|-------------------------------------------------------------------------------|
E|-------------------------------------------------------------------------------|

    The throb of guilt trips me up every hour of the day               Of the day

Verse: Chords

e|-------------------------------------------------------------------------------|
B|--------------------------------0-0-0-0-0-0------------------------------------|
G|------------5-5-5-x-x-------x-x-0-0-0-2-2-2------------------------------------|
D|--5-5-5-x-x-5-5-5-x-x-2-2-2-x-x-1-1-1-1-1-1------------------------------------|
A|--5-5-5-x-x-3-3-3-x-x-2-2-2-x-x-2-2-2-2-2-2------------------------------------|
E|--3-3-3-x-x-----------0-0-0----------------------------------------------------|
                                                                                     x 2
e|-------------------------------------------------------------------------------|
B|------------0-0-0---------------0-0-0-0-0-0------------------------------------|
G|------------2-2-2-x-x-------x-x-0-0-0-2-2-2------------------------------------|
D|--5-5-5-x-x-3-3-3-x-x-2-2-2-x-x-1-1-1-1-1-1------------------------------------|
A|--5-5-5-x-x-3-3-3-x-x-2-2-2-x-x-2-2-2-2-2-2------------------------------------|
E|--3-3-3-x-x-----------0-0-0----------------------------------------------------|

Verse: Palm Muted

e|-------------------------------------------------------------------------------|
B|--------------------------------0-0-0-0-0-0------------------------------------|
G|------------5-5-5-x-x-------x-x-0-0-0-2-2-2------------------------------------|
D|--5-5-5-x-x-5-5-5-x-x-2-2-2-x-x-1-1-1-1-1-1------------------------------------|
A|--5-5-5-x-x-3-3-3-x-x-2-2-2-x-x-2-2-2-2-2-2------------------------------------|
E|--3-3-3-x-x-----------0-0-0----------------------------------------------------|
 
    1. There's / hole / my head  
    3. I try to mend the wound
                                                                                    x 2
e|-------------------------------------------------------------------------------|
B|------------0-0-0---------------0-0-0-0-0-0------------------------------------|
G|------------2-2-2-x-x-------x-x-0-0-0-2-2-2------------------------------------|
D|--5-5-5-x-x-3-3-3-x-x-2-2-2-x-x-1-1-1-1-1-1------------------------------------|
A|--5-5-5-x-x-3-3-3-x-x-2-2-2-x-x-2-2-2-2-2-2------------------------------------|
E|--3-3-3-x-x-----------0-0-0----------------------------------------------------|

    2. A putrid void of the things I've left unsaid
    4. But I can't

Pre Chorus

e|-------------------------------------------------------------------------------|
B|-------------------------------------------------------------------------------|
G|------------5-5-5-x-x-9-9-9-x-x------------------------------------------------|
D|--5-5-5-x-x-5-5-5-x-x-9-9-9-x-x-9-9-9-10-10-10---------------------------------|
A|--5-5-5-x-x-3-3-3-x-x-7-7-7-x-x-9-9-9-10-10-10---------------------------------|
E|--3-3-3-x-x---------------------7-7-7--8--8--8---------------------------------|

e|-------------------------------------------------------------------------------|
B|-------------------------------------------------------------------------------|
G|------------5-5-5-x-x-9-9-9-x-x-8-8-8--9--9--9---------------------------------|
D|--5-5-5-x-x-5-5-5-x-x-9-9-9-x-x-9-9-9-10-10-10---------------------------------|
A|--5-5-5-x-x-3-3-3-x-x-7-7-7-x-x-9-9-9-10-10-10---------------------------------|
E|--3-3-3-x-x---------------------7-7-7--8--8--8---------------------------------|

Chorus

e|------------------------------------0-0-0-0-0-0---0---0-0-0-0-0-0-0------------|
B|------------------------------------0-0-0-0-0-0---0---0-0-0-0-0-0-0------------|
G|--5-5-5-5-5-5/--7/--9-9-9-9-9-9-9---4-4-4-4-4-4---6---8-8-8-8-8-8-8------------|
D|--5-5-5-5-5-5/--7/--9-9-9-9-9-9-9---5-5-5-5-5-5/--7/--9-9-9-9-9-9-9------------|
A|--3-3-3-3-3-3/--5/--7-7-7-7-7-7-7---5-5-5-5-5-5/--7/--9-9-9-9-9-9-9------------|
E|--3-3-3-3-3-3/--5/--7-7-7-7-7-7-7---3-3-3-3-3-3/--5/--7-7-7-7-7-7-7------------|

    I bet you thought / the one       But I let myself / overcome

e|------------------------------------0--0-0-------------------------------------|
B|------------------------------------0--0-0-------------------------------------|
G|--5-5-5-5-5-5/--7/--9-9-9-9-9-9-9---8--8-6-------------------------------------|
D|--5-5-5-5-5-5/--7/--9-9-9-9-9-9-9---9--9-7-------------------------------------|
A|--3-3-3-3-3-3/--5/--7-7-7-7-7-7-7---9--9-7-------------------------------------|
E|--3-3-3-3-3-3/--5/--7-7-7-7-7-7-7---7--7-5-------------------------------------|
                                           (let this last chord ring)
    I try to push you away / But I'm weak

Verse: Palm Muted

Chorus

Bridge:


e|-------------------------------------------------------------------------------|
B|-------------------------------------------------------------------------------|
G|---------------5--------0--------2---------------------------------------------| x 2
D|------5------5---5----2---2----1---1-------------------------------------------|
A|----5---5--3--------2--------2-------------------------------------------------|
E|--3----------------------------------------------------------------------------|

e|-------------------------------------------------------------------------------|
B|-------------------------------------------------------------------------------|
G|---------------5--------0--------2---------------------------------------------| x 4
D|------5------5---5----2---2----1---1-------------------------------------------|
A|----5---5--3--------2--------2-------------------------------------------------|
E|--3----------------------------------------------------------------------------|

     1.My wolves refuse to rest
     2.Their howls distract me from this mess
     3.Sweet slumber and silence suck this pain from my chest
     4.From my chest

Bridge cont: Palm mute

e|-------------------------------------------------------------------------------|
B|-------------------------------------------------------------------------------|
G|-----------5-5-5-x--9-9-9-x----------------------------------------------------| x 3
D|--5-5-5-x--5-5-5-x--9-9-9-x-----9-9-10-10--------------------------------------|
A|--5-5-5-x--3-3-3-x--7-7-7-x-----9-9-10-10--------------------------------------|
E|--3-3-3-x-----------------------7-7-8--8---------------------------------------|

          A-oh     A-oh     A-oh, A-oh, A-oh

e|-------------------------------------------------------------------------------|
B|-------------------------------------------------------------------------------|
G|-----------5-5-5-x--9----------------------------------------------------------|
D|--5-5-5-x--5-5-5-x--9----------------------------------------------------------|
A|--5-5-5-x--3-3-3-x--7----------------------------------------------------------|
E|--3-3-3-x----------------------------------------------------------------------|
                       (let this last chord ring)

Outro

e|--0-0-00000---0-0000000---0-0-00000---0-0000000--------------------------------|
B|--0-0-00000---0-0000000---0-0-00000---0-0000000--------------------------------|
G|--0-0-00000---0-0000000---2-2-22222---2-2222222--------------------------------| x 2
D|--2-2-22222---2-2222222---2-2-22222---3-3333333--------------------------------|
A|--3-3-33333---2-2222222---0-0-00000---3-3333333--------------------------------|
E|--3-3-33333---0-0000000---0-0-00000---0-0000000--------------------------------|

    Play this loud!
                                                                    
e|--0-0-00000--0-0000000-----------------0-0-00000--------0-0000000-----------|---0---|
B|--0-0-00000--0-0000000-----------------0-0-00000--------0-0000000-----------|---0---|
G|--0-0-00000--0-0000000-----------------2-2-22222--------2-2222222-----------|---0---| 
D|--2-2-22222--2-2222222-----------------2-2-22222--------3-3333333-----------|---2---|
A|--3-3-33333--2-2222222-----------------0-0-00000--------3-3333333-----------|---3---|
E|--3-3-33333--0-0000000-----------------0-0-00000--------0-0000000-----------|---3---|
                                                                    x 4       (End song on this chord)
  
  I hate you so much and I want you to know how much it hurts to be all alone



************************************

| /   slide up
| \   slide down
| ~   vibrato
| x   Mute note
| b   Bend


************************************
Tap to rate this tab
 
# A B C D E F G H I J K L M N O P Q R S T U V W X Y Z