Song name
# A B C D E F G H I J K L M N O P Q R S T U V W X Y Z

Misc Unsigned Bands - Legends Of The Fall - Theme tab

-------------------------------------------------------------------------------
                             Main theme - Legends of The Fall
-------------------------------------------------------------------------------
Tabbed by: Vinnycall

This is my first tab, i did it by ear so maybe there are some mistakes.

Tuning: Standard ( E-a-d-g-b-e)

e|---5-3-2------------3-2--0--------------0-2--------0----------------------|
B|-------------3--------------------2--3----------------3-------------------|
G|2---------2-----2--------------2----------------4--------4----------------|
D|-------0--------------------2----------------4------------------5---------|
A|-------------------------0----------------2------------------5------5-----|
E|---------------------------------------------------------3----------------|


e|------------------------------------------------------5--3--2-------2--5--|
B|-3-0------------------------------------------------------------3---------|
G|-----2-2-4-2-0----------0--2--4--------4--6--------2----------2---2-------|
D|-----0----------4--4----------------5-----------7-----------0-------------|
A|----------------2----2-----------5-----5-----7----------------------------|
E|------------------------------3-----------5-------------------------------|

e|-7-----5--2--0--2--0-----0--2--3--2--0------------------------------------|
B|----8-----------------3-----------------3---------------------------------|
G|-------------------------------------------4--------2--0------------------|
D|-5----------------------------------------------5----------4--4-----------|
A|-------------0--------------2-----------------5---5--------5-----5--------|
E|-------------------------------------------3------------------------------|

e|--------------------------------------------------------------------------|
B|--------------------------------------------------------------------------|
G|--------2--5--4-----5--4--2-----0--2--------2---------------2--5---4------|
D|-----4--------------------------------0-------0----------4-------3--------|
A|--5--------3-----3----------------------0--5----0--5--5--------------3----|
E|-----------------------3----3---------------------------------------------|

e|------------------0-------------------------------------------------------|
B|------------------3-------------------------------------------------------|
G|--5--4--2------0--2-------------------------------------------------------|
D|------------------0-------------------------------------------------------|
A|-----3-----3--------------------------------------------------------------|
E|--------------------------------------------------------------------------|

Dont forget to rate (:
Tap to rate this tab
# A B C D E F G H I J K L M N O P Q R S T U V W X Y Z