Song name
# A B C D E F G H I J K L M N O P Q R S T U V W X Y Z

Misc Unsigned Bands - Gabriella Smith - Washed Away tab

A first draft of a tab for the song in the YouTube video below (skip to about 1;50 
to hear the song)

https://www.youtube.com/watch?v=yFff-byuk-8&feature=youtube_gdata_player

e|-------------------------------|
b|0-3-3-7-5p3-5-0-3-0-3-5-5-0-0-0|
g|-------------------------------|
d|-------------------------------|
a|-------------------------------|
e|-------------------------------|
  
e|-------------------------------|
b|0-0-3-3-7-5p3-5-0-3-0-5-5------|
g|-------------------------4-----|
d|-------------------------------|
a|-------------------------------|
e|-------------------------------|

e|-------------------------------|
b|0-0-3-0-7-5p3-5-0-0-3-0--------|
g|------------------------2-4----|
d|-------------------------------|
a|-------------------------------|
e|-------------------------------|


e|-------------------------------|
b|0-3-3-7-5-3-5-0-3-0-0----------|
g|----------------------2-4------|
d|-------------------------------|
a|-------------------------------|
e|-------------------------------|

Tab by pHIL McDonald, Song by Gabriella Smith
Tap to rate this tab
 
# A B C D E F G H I J K L M N O P Q R S T U V W X Y Z