Song name
# A B C D E F G H I J K L M N O P Q R S T U V W X Y Z

Misc Unsigned Bands - Traverse - Monster tab

Tuning: Drop D

Intro
(A)
e|------------------------------------------------------------------|
B|------------------------------------------------------------------|
G|------------------------------------------------------------------|
D|------------------------------------------------------------------|
A|------------------------------------------------------------------|
D|---77-8-7-10-7-8-7-55-77-55-77------------------------------------|2x palm muted

e|------------------------------------------------------------------|
B|------------------------------------------------------------------|
G|------------------------------------------------------------------|
D|---77-8-7-10-7-8-7-55-77-55-77------------------------------------|
A|---77-8-7-10-7-8-7-55-77-55-77------------------------------------|
D|---77-8-7-10-7-8-7-55-77-55-77------------------------------------| 2x

(B)
e|------------------------------------------------------------------|
B|------------------------------------------------------------------|
G|------------------------------------------------------------------|
D|---77x---10-10x---55x---7-7x--------------------------------------|
A|---77x---10-10x---55x---7-7x--------------------------------------|
D|---77x---10-10x---55x---7-7x--------------------------------------| 2x

Verse

e|------------------------------------------------------------------|
B|------------------------------------------------------------------|
G|---------------------5--------------------------------------------|
D|--7--------3---------5-(x16)--5-----------------------------------|
A|--7-(x16)--3-(x16)---3--------5-(x16)-----------------------------|
D|--7--------3------------------5-----------------------------------|3x (2x palm-muted)

Chorus

e|------------------------------------------------------------------|
B|------------------------------------------------------------------|
G|------------------------------------------------------------------|
D|---7--7-77-----10--10-1010------5--5-55----3--3-33----------------|
A|---7--7-77-----10--10-1010------5--5-55----3--3-33----------------|
D|---7--7-77-----10--10-1010------5--5-55----3--3-33----------------|

e|------------------------------------------------------------------|
B|------------------------------------------------------------------|
G|------------------------------------------------------------------|
D|---777-8-8-5--5-55-5----------------------------------------------|
A|---777-8-8-5--5-55-5----------------------------------------------|
D|---777-8-8-5--5-55-5----------------------------------------------| 2x

e|------------------------------------------------------------------|
B|------------------------------------------------------------------|
G|--5--5-5---7--7-7-------------------------------------------------|
D|--5--5-5---7--7-7---3-3-3-----------------------------------------|
A|--3--3-3---5--5-5---3-3-3-----------------------------------------|
D|--------------------3-3-3-----------------------------------------|

Intro (A) 4x
Verse
Chorus
Bridge (we'll figure something out)
Chorus

--x---
--x--- is a muted hit
--x---

************************************

Lyrics-

(V1)
Why do we ask why, so many times?
When we create monsters, without even a lie
Ask how things, ever got so bad
While we're staring at the crash
All in all we'll say, never ask why
Don't look under your bed, you'll be just fine

(Chorus)
Why do we love to make monsters
With nothing in our way
We'll be gods for a day
Just to witness our fall from grace

(V2)
You can see the fires set
And feel the warmth and glow
And never know what it feeds on
Just to make it so
With the matches in your hand
We'll point the blame
As soon as we douse
Our never ending flame

(Bridge)
Look what you've created, 
look what you've destroyed
In the end, will you still sit in defense
When your monster comes back
No second chance
Tap to rate this tab
# A B C D E F G H I J K L M N O P Q R S T U V W X Y Z