Song name
# A B C D E F G H I J K L M N O P Q R S T U V W X Y Z

Misc Unsigned Bands - Nicole Dollanganger - Please Eat tab

-------------------------------------------------------------------------------
                             PLEASE EAT - NICOLE DOLLANGANGER
-------------------------------------------------------------------------------

Capo: 3rd fret
My first tab, enjoy!

e|------------------------------------------------------------------------|
B|---3---3---3---3-----3---3---3---3--------------------------------------|
G|-----2---2---2---------2---2---2----------------------------------------|
D|-0----------------------------------------------------------------------|
A|-------------------3----------------------------------------------------|
E|------------------------------------------------------------------------|
Tap to rate this tab
# A B C D E F G H I J K L M N O P Q R S T U V W X Y Z