Song name
# A B C D E F G H I J K L M N O P Q R S T U V W X Y Z

Misc Unsigned Bands - Mike Lisi - Blanket tab

Capo on 2
standard tuning

          e|-----------------------------|
          B|---------------------1-------|
    C     G|----------0-------------0----|
          D|-------2----2-----2----------|    <------ These are repeated twice
          A|----3----------3-------------|                 every time
          E|-----------------------------|       

          e|-----------------------------|
          B|---------------------1-------|
    Am    G|----------2-------------2----|    <-------
          D|-------2----2-----2----------|
          A|----0----------0-------------|
          E|-----------------------------|

          e|-----------------------------|
          B|---------------------0-------|
    E     G|----------1-------------1----|         Just remove the 1
          D|-------2----2-----2----------|           for the Em
          A|----2----------2-------------|
          E|-----------------------------|

    

C    Am  
C    Am

    C
Drowning in the sunset stew
      Am
Lying dazed and drunk with you
    E                           Em
Birds and bats performing acts in the trees

   C
If I can nibble on your feet
       Am
And be molded by your body heat
     E                             Em
That cotton candy sky can fall and kill me

C
Open your arms and envelope me
        Am
In your warm and mummifying sheets
E                                         Em
Squeeze me tight enough to wring me of my grief

C     Am            {  at this part, strum up with your thumb   }
C     Am                  before every first repetition

C                           
I don't mind having trouble breathing
Am
I don't mind having trouble breathing
E
I don't mind having trouble breathing 
Em
If you don't
Tap to rate this tab
 
# A B C D E F G H I J K L M N O P Q R S T U V W X Y Z