Song name
# A B C D E F G H I J K L M N O P Q R S T U V W X Y Z

Misc Unsigned Bands - Where Youd Rather Be - Taylor Steele tab

e----------------------------------------------------------------------|
B----------------------------------------------------------------------|
G--------7------5------------------------7-----5-----------------------|
D----------------------8------------------------------8----------------|
A----5------5-----5------5----------5------5-----5------5--------------|
E--6---6------6-----6------6------6---6------6-----6------6------------|


e----------------------------------------------------------------------|
B----------------------------------------------------------------------|
G----------5--------5---------5---------5------------------------------|
D----3--3-----3--3------3--3-----3--3----------------------------------|
A----------------------------------------------------------------------|
E----------------------------------------------------------------------|


e----------------------------------------------------------------------|
B----------------------------------------------------------------------|
G----------3--------3--------3--------3--------------------------------|
D----5--5-----5--5-----5--5-----5--5-----------------------------------|
A----------------------------------------------------------------------|
E----------------------------------------------------------------------|
Tap to rate this tab
# A B C D E F G H I J K L M N O P Q R S T U V W X Y Z