Song name
# A B C D E F G H I J K L M N O P Q R S T U V W X Y Z

Misc Unsigned Bands - Thugnasty - The Deal tab

Thugnasty dat new rap group dats hard as fuh
facebook.com/kushinkushout

chorus lead
E---------------------------|
B---------------8-6~---8-8b-|
G-5-7~---5-7b---------------|
D---------------------------|
A---------------------------|
E---------------------------|

Chords played constantly
E--------------|
B--------------|
G-14----10--12-|
D-12-----8--10-|
A-12-----8--10-|
E-13----10--12-|

dayum raw as fuh
Tap to rate this tab
 
# A B C D E F G H I J K L M N O P Q R S T U V W X Y Z