Song name
# A B C D E F G H I J K L M N O P Q R S T U V W X Y Z

Misc Unsigned Bands - The Old 319 - Viking Funeral tab

------------------------------------------------------------------------------|
------------------------------------------------------------------------------|
--------------------------------------------------------------5---5-----------|
-----------------3----------------3----------------3----------5---5----5----5-|
-----------------3----------------3----------------3----------3---3----5----5-|
--00000000000000-1-00000000000000-1-00000000000000-1-00000000--00---00-3-00-3-|


------------------------------------------------------------------------------|
------------------------------------------------------------------------------|
-------------------------------------------------------------5---5------------|
-----------------3----------------3----------------3---------5---5-----5----5-|
-----------------3----------------3----------------3---------3---3-----5----5-|
--00000000000000-1-00000000000000-1-00000000000000-1-00000000--00---00-3-00-3-|


---------------------------------------------------------------------------|
---------------------------------------------------------------------------|
----2-----4---5---2-----4-----5--2---4----5--2-----------------------------|
----2-----4---5---2-----4-----5--2---4----5--2-------0-0-------------------|
----0-----2---3---0-----2-----3--0---2----3--0-----------------------------|
-00----00---00-------00----00------00--00------------3-2-------------------|
Tap to rate this tab
# A B C D E F G H I J K L M N O P Q R S T U V W X Y Z