Song name
# A B C D E F G H I J K L M N O P Q R S T U V W X Y Z

Misc Unsigned Bands - Gersang - Suratan Takdir tab

GERSANG - Suratan Takdir (intro & solo)




Key:

^  - bend
^^ - full bend
h  - hammer on
p  - pull off
r  - release bend
/  - slide down
\  - slide up
~  - vibrato
() - finger tap




INTRO:

  
     C           Em           F                 C              C
e|--------------------------------------------------------------------|
B|-------------------------------------------------------------13~----|
G|--/5~---7-7^^r--4~---/12~---14--10-10~---9-10-12--9-9~---/12--------|
D|--------------------------------------------------------------------|
A|--------------------------------------------------------------------|
E|--------------------------------------------------------------------|


          Em        F         C    G         C                C
e|------------------------------------------------------------------------|
B|-----13-12--------------------------------------------------------------|
G|--12---------12---14-----------------------9----------------9-----------|
D|----------------------15-12-10---9-------------10-10------------10-10---|
A|---------------------------------------/10--------------/10-------------|
E|------------------------------------------------------------------------|



C
Kesukaran...



Guitar Tabs by rizalwahap
Tap to rate this tab
# A B C D E F G H I J K L M N O P Q R S T U V W X Y Z